Guitar Tabs, Chords and Lyrics
Server problems seems to be fixed. Chordie has been experiencing problems with songs disappearing. These issues now seems to be fixed, but still verifying the fix. If you find anything strange, please email admin@chordie.com.


Action Man in Motown Suit  10cc

[Intro] 
[Bm] [A]  
[Bm] [A]  
[Bm] [A]  
[E7] [G] [Bm]  
[E7] x2[G] [Bm]
(Intro Solo)
[Bm] [A] [Bm] [A]  
 
 e|-----5-------------------|------5---------------------|
 B|-5/7---7\5---------------|--5/7---7\5-----------------|
 G|-----------------------4-|----------------------------|
 D|-----------4-7---7-4-7---|-------------4-7---7-4-7-4--|
 A|-------------------------|----------------------------|
 E|------------------------------------------------------|

[Bm] [A] [E7] [G] [Bm] [E7] [G] [Bm]  
 
 e|-----5-------------------|----------------------------|----------7-------------------|
 B|-5/7---7\5---------------|----------------------------|------------------------------|
 G|-----------------------4-|4-7-9p7-9b11--11r9-7--------|----7-9-7---9b10r9-7-9-7------|
 D|-----------4-7---7-4-7---|----------------------9p7h9\|-/9---------------------9p7-9-|
 A|-------------------------|----------------------------|------------------------------|
 E|------------------------------------------------------|------------------------------|

[Verse] 
[Em7]Let's stay a while and watch him [A7]
H[A7]e's moving into ac[Em7]tion man [A7]
He's lo[Em]oki[7]ng good but maybe [A7]
He's in the wrong[Em7] direction man [A7]
[Pre-Cborus] 
But he wanna get a [Dmaj7]little, get a little
Every night, get a l[D7sus2/A]ittle, get a little
[D7]Something for his appetite [G] [A] [Bm]
Everybody needs to have a [G] [A] [Bm]recreation [G] [A] [D]
[D]Everybody needs a little c[G]omfort f[A]or the s[Bm]oul [Bm7]
[Cborus] 
(you can play Riff or chords)
[B] [B] [A] [G#] [A] [G#] [A] [A] [B] [B] [A] [G#] [A] [A] [B]  
 
 e|---------------------------------------|
 B|---------------------------------------|
 G|---------------------------------------|
 D|---------------------------------------|
 A|-9--9-7--6-7--6-7--7-9--9-7--6-7--7-9--|x2
 E|-7--7-5--4-5--4-5--5-7--7-5--4-5--5-7--|

[E] [E] [D] [C#] [D] [C#] [D] [D] [E] [E] [D] [C#] [D] [A]  
 
 e|---------------------------------------|
 B|---------------------------------------|
 G|----------------------------------6----|
 D|-9--9-7--6-7--6-7--7-9--9-7--6-7--7----|
 A|-7--7-5--4-5--4-5--5-7--7-5--4-5--7----|
 E|----------------------------------5----|

[B] [B] [A] [G#] [A] [G#] [A] [A] [B] [B] [A] [G#] [A] [A] [B]  
 
 e|---------------------------------------|
 B|---------------------------------------|
 G|---------------------------------------|
 D|---------------------------------------|
 A|-9--9-7--6-7--6-7--7-9--9-7--6-7--7-9--|
 E|-7--7-5--4-5--4-5--5-7--7-5--4-5--5-7--|

[B]You[B]'l[A]l [G#] [A]neve[G#]r m[A]ake it in a[A] m[B]otown[B] s[A]uit[G#] [A] [A] [B]
[B]No [B] [A] [G#] [A]way [G#]to [A]fake it man[A] t[B]hey'r[B]e [A]not[G#] yo[A]ur[A] r[B]oots
[E] [E] [D] [C#] [D] [C#] [D] [D] [E] [E] [D] [C#] [D] [A]  
Y[B]ou'[B]ll[A] [G#] n[A]ever[G#] ma[A]ke it in a [A]mo[B]town [B]su[A]it [G#] [A] [A] [B]
Y[D7]ou can't be a [E7]drummer without [B]rhythm (choo choo choo)
C[D7]an't blow your [E7]horn if you ain't [B]blue
S[D7]ome folks they[E7] just ain't got it i[B]n `em (choo choo choo)
T[D7]ell me boy now[E7] does that sound lik[B]e you
[Instrumental] 
[Bm] [A]  
[Bm] [A]  
[Bm] [A]  
[E7] [G] [Bm]  
[E7] [G] [Bm]  
[Verse] 
[Em7]He's cruising with the singles [A7]
Down the marga[Em7]rita bar [A7]
He's bor[Em7]ing to distraction [A7]
Pushing words and[Em7] talking stars [A7]
[Pre-Cborus] 
(What's your sign)
[Dmaj7]He's gotta take a little, take a little
On the side, make a[D7sus2/A] little, make a little
[D7]Something for his appetite [G] [A] [Bm]
[Bm]Everybody needs a little [G] [A] [Bm]lubrication [G] [A] [D]
[D]Someone with imagination g[G]ot to br[A]eak the [Bm]ice
[Cborus] 
[B] [B] [A] [G#] [A] [G#] [A] [A] [B] [B] [A] [G#] [A] [A] [B]  
 
 e|---------------------------------------|
 B|---------------------------------------|
 G|---------------------------------------|
 D|---------------------------------------|
 A|-9--9-7--6-7--6-7--7-9--9-7--6-7--7-9--|x2
 E|-7--7-5--4-5--4-5--5-7--7-5--4-5--5-7--|

[E] [E] [D] [C#] [D] [C#] [D] [D] [E] [E] [D] [C#] [D] [A]  
 
 e|---------------------------------------|
 B|---------------------------------------|
 G|----------------------------------6----|
 D|-9--9-7--6-7--6-7--7-9--9-7--6-7--7----|
 A|-7--7-5--4-5--4-5--5-7--7-5--4-5--7----|
 E|----------------------------------5----|

[B] [B] [A] [G#] [A] [G#] [A] [A] [B] [B] [A] [G#] [A] [A] [B]  
 
 e|---------------------------------------|
 B|---------------------------------------|
 G|---------------------------------------|
 D|---------------------------------------|
 A|-9--9-7--6-7--6-7--7-9--9-7--6-7--7-9--|
 E|-7--7-5--4-5--4-5--5-7--7-5--4-5--5-7--|

[B]You[B]'l[A]l [G#] [A]neve[G#]r m[A]ake it in a[A] m[B]otown[B] s[A]uit[G#] [A] [A] [B]
[B]No [B] [A] [G#] [A]way [G#]to [A]fake it man[A] t[B]hey'r[B]e [A]not[G#] yo[A]ur[A] r[B]oots
[E] [E] [D] [C#] [D] [C#] [D] [D] [E] [E] [D] [C#] [D] [A]  
Y[B]ou'[B]ll[A] [G#] n[A]ever[G#] ma[A]ke it in a [A]mo[B]town [B]su[A]it [G#] [A] [A] [B]
Y[D7]ou can't be a [E7]lover without rh[B]ythm
D[D7]on't blow your h[E7]orn if you ain't[B] true
N[D7]o point in pla[E7]ying Valent[B]ino
H[D7]e's a sham and b[E7]rother so are y[B]ou
Y[D7]ou can't be a [E7]drummer without [B]rhythm
C[D7]an't blow your[E7] horn if you ain[B]'t blue
S[D7]ome folks they[E7] just ain't got [B]it in `em
T[D7]ell me boy now[E7] does that sound[B] like you
[Outro] 
[Bm] [A]  
[Bm] [A]  
[Bm] [A]  
[E7] [G] [Bm]  
[E7] [G] [Bm] 

Important: The song above is NOT stored on the Chordie server. The original song is hosted at www.azchords.com. Chordie works as a search engine and provides on-the-fly formatting. Chordie does not index songs against artists'/composers' will. To remove this song please click here.

Text color:
Chord color:
Chord grids: 
Font size:    
Page size: 

A A7 B Bm Bm7 C# D D7 Dmaj7 E E7 Em Em7 G G#
Rate #1 of 1 versions

Login - add to songbook

SHARE PAGE  




You need to log in to post comments