Guitar Tabs, Chords and Lyrics
Update 25:10. 13:00. Site is back up running again. Songbooks are recovered. Woring on getting search back up..


Don't Tread on Me  311

Since Mxtabs.net doesn't seem to allow people to share and post tabs anymore, I thought
just move my tabs from that account, over here. Here's the first tab I ever did. I've
it a bit since then. Some may wonder, ‚??Hey, this looks like ver3 of the same song.
There‚??s a reason for that. A long ass time ago Mike Courtney stole my tab from
The only thing he changed was that he deleted the chord names above the staff and took
it his own. I wouldn‚??t have mind if had given me credit somewhere in there, but whatever.
Here you go. I made some changes to ‚??my‚?? tab. I added Gtr2 in the intro.
Riff 1, the E7 changed to an E chord. Riff 2, the chords stayed the same but the chord
changed. Riff 4, I added Gtr2 at the end and changed the slide from 3/5 to 4/7 for Gtr1.
out some of the cr*p that was going on in Riff 5; couldn‚??t accurately make out some of
the second time around. Added Gtr2 and a pick scr*pe to Break 1. And changed the
just a bit.
Enjoy!!!
Standard Tuning: EADGBE
Intro [Gtr.1] (Distortion)
Am G N.C.
 
 1:--5-------------------------------------------------------------------||
 2:--5-------5---------------5-------------------------------------------||
 3:--5---------5-----------7---7-4---------5-2---5-2----------4h5---4h5--||
 4:--7-----7-----7-5----55---------5-3---3-----3-----3-2~---2-----2------||
 5:--7-------------------------------------------------------------------||
 6:--5-------------------------------------------------------------------||

[Gtr.2] 
[Am] [G] [F] [E] [G6]  
 
 1:--0^--------------------------------------------------00-------0-0----||
 2:--1^----------------------3---------------------------00-------0-0----||
 3:--2^-----2-2-2--0---------0-0-0---2-------------4-----11-------0-0----||
 4:--2^-----2-2-2--0-------0-0-0-0---3---3-3--33-3-3---22---0-0----------||
 5:--0^-----0-0-0--2-------2---2-2---3---3-3--33-3-3---22---2-2----------||
 6:----------------3-------3---------1---1-1--11-1-1---00---3-3----------||

let ring throughout
^ = arpeggio - strum strings in succession from low to high
Riff 1 (x2) [Clean]
[C] [E] [Am] [F]  
 
 1:--8--8--8--8----------------------------------------------||
 2:--8--8--8--8--9--9--9--9--10--10--10--10--10--10--10--10--||
 3:--9--9--9--9--9--9--9--9---9---9---9---9--10--10--10--10--||
 4:--------------9--9--9--9--10--10--10--10--10--10--10--10--||
 5:----------------------------------------------------------||
 6:----------------------------------------------------------||

Riff 2A (x2) [Clean]
[Am] [G]  
 
 1:---------------------------------------------------------------------|
 2:-x-x-10-x-x-x-10-x-x-x-10-x-x-x-10-x-x-x-8-x-x-x-8-x-x-x-8-x-x-x-8-x-|
 3:-x-x--9-x-x-x--9-x-x-x--9-x-x-x--9-x-x-x-7-x-x-x-7-x-x-x-7-x-x-x-7-x-|
 4:-x-x-10-x-x-x-10-x-x-x-10-x-x-x-10-x-x-x-9-x-x-x-9-x-x-x-9-x-x-x-9-x-|
 5:---------------------------------------------------------------------|
 6:---------------------------------------------------------------------|

Riff 2B
[F] [E5/B] [G]  
 
 1:-----------------------------------------------------------||
 2:-x-x-6-x-x-x-6-x-x-x-6-x-x-x-6----------5---------3--------||
 3:-x-x-5-x-x-x-5-x-x-x-5-x-x-x-5----------4-4-------4-44x----||
 4:-x-x-7-x-x-x-7-x-x-x-7-x-x-x-7-------2--2-2----5--5-55x----||
 5:----------------------------------2--2--2-2--5-5--5-55x----||
 6:----------------------------------0--0-------3-3-----------||
 <--let ring---------------||

Riff 1 (x2) [Clean]
[C] [E] [Am] [F]  
 
 1:--8--8--8--8----------------------------------------------||
 2:--8--8--8--8--9--9--9--9--10--10--10--10--10--10--10--10--||
 3:--9--9--9--9--9--9--9--9---9---9---9---9--10--10--10--10--||
 4:--------------9--9--9--9--10--10--10--10--10--10--10--10--||
 5:----------------------------------------------------------||
 6:----------------------------------------------------------||

Riff 3 [sligbt dist.]
[A5] [G5]  
 
 1:--------------------------------------------------------------------------------------------------||
 2:--------------------------------------------------------------------------------------------------||
 3:--------------------------------------------------------------------------------------------------||
 4:--------------------------------------------------------------------------------------------------||
 5:--------------------------------5-----------5------------------------------------5-----------5----||
 6:-5-5-5-0--5--555-5-0--5---3-3-3---3---333-3----3--5-5-5-0--5--555-5-0--5---3-3-3---3---333-3----3-||
 light PM---------| |--------------------| |----------| |---| |---| |----------||

[F5] [E5/B] [D5/A] [C5/G] [B5/F#]  
 
 :-----------------------------------------------||
 :-----------------------------------------------||
 :--------------------------9----7----5----4-----||
 :--------------------------9----7----5----4-----||
 :-------3------------3-----7----5----3----2-----||
 :-1-1-1----1---111-1----1--7----5----3----2-----||
 |---| |---| |---distortion-------||

Riff 4 (x2) [Gtr.1, Distortion]
[A5] [G5A5] [F5] [G5] [A5] [G5A5] [F5] [G5] [A5] [G5A5] [F5] [G5] [E5]  
 
 1:----------------------------------------------------------------------------------------||
 2:----------------------------------------------------------------------------------------||
 3:----------------------------------------------------------------------------------------||
 4:--7-7--5/7-7--3-x3-5--7-7--5/7-7--3-x-3-5--7-7--5/7-7--3-x3-5---------------------------||
 5:--7-7--5/7-7--3-x3-5--7-7--5/7-7--3-x-3-5--7-7--5/7-7--3-x3-5--2------2------2------2---||
 6:--5-5--3/5-5--1-x1-3--5-5--3/5-5--1-x-1-3--5-5--3/5-5--1-x1-3--0--4/7-0--4/7-0--4/7-0---||

[Gtr. 2, dist.] 
Play this chord when Riff 4 repeats for a second time G
 
 1:---------------------------------------------------------------------------------3------||
 2:---------------------------------------------------------------------------------3------||
 3:---------------------------------------------------------------------------------4------||
 4:---------------------------------------------------------------------------------5------||
 5:---------------------------------------------------------------------------------5------||
 6:---------------------------------------------------------------------------------3------||

Riff 5 (x2) [Distortion]
[C] [E] [Am]  
 
 1:-x-x-8-x-x-x-8-x-x-x-8-x-x-x-8----------------------------------------------------------------------:
 2:-x-x-8-x-x-x-8-x-x-x-8-x-x-x-8-x-x-x-9-x-x-x-9-x-x-x-9-x-x-x-9-x-x-x-10-x-x-x-10-x-x-x-10-x-x-x-10--:
 3:-x-x-9-x-x-x-9-x-x-x-9-x-x-x-9-x-x-x-9-x-x-x-9-x-x-x-9-x-x-x-9-x-x-x--9-x-x-x--9-x-x-x--9-x-x-x--9--:
 4:-------------------------------x-x-x-9-x-x-x-9-x-x-x-9-x-x-x-9-x-x-x-10-x-x-x-10-x-x-x-10-x-x-x-10--:
 5:----------------------------------------------------------------------------------------------------:
 6:----------------------------------------------------------------------------------------------------:

[F]  
 
 :---------------------------------------||
 :-x-x-x-10-x-x-x-10-x-x-x-10-x-x-x-10-x-||
 :-x-x-x-10-x-x-x-10-x-x-x-10-x-x-x-10-x-||
 :-x-x-x-10-x-x-x-10-x-x-x-10-x-x-x-10-x-||
 :---------------------------------------||
 :---------------------------------------||

** *
* - don't play on repeat
Break 1 for some crazy sounds. [Distortion]
[Gtr.1] 
 
 1:----------------------------------------------------------------||
 2:---------5555555----< Followed by some >------------------------||
 3:-2222222------------< Sound FX >------------------------||
 4:--------------------------------------------x\\\\---------------||
 5:-------------------------------------------------x\\\-----------||
 6:-----------------------------------------------------x\\\\------||
 PS------------------||

[Gtr.2] G
 
 1:------------------------------------------------------7--77----||
 2:------------------------------------------------------8--88----||
 3:------------------------------------------------------7--77----||
 4:------------------------------------------------------9--99----||
 5:---------------------------------------------------------------||
 6:---------------------------------------------------------------||

Riff 5 [Distortion]
[C] [E] [Am]  
 
 1:-x-x-8-x-x-x-8-x-x-x-8-x-x-x-8----------------------------------------------------------------------:
 2:-x-x-8-x-x-x-8-x-x-x-8-x-x-x-8-x-x-x-9-x-x-x-9-x-x-x-9-x-x-x-9-x-x-x-10-x-x-x-10-x-x-x-10-x-x-x-10--:
 3:-x-x-9-x-x-x-9-x-x-x-9-x-x-x-9-x-x-x-9-x-x-x-9-x-x-x-9-x-x-x-9-x-x-x--9-x-x-x--9-x-x-x--9-x-x-x--9--:
 4:-------------------------------x-x-x-9-x-x-x-9-x-x-x-9-x-x-x-9-x-x-x-10-x-x-x-10-x-x-x-10-x-x-x-10--:
 5:----------------------------------------------------------------------------------------------------:
 6:----------------------------------------------------------------------------------------------------:

[F]  
 
 :---------------------------------------||
 :-x-x-x-10-x-x-x-10-x-x-x-10-x-x-x-10-x-||
 :-x-x-x-10-x-x-x-10-x-x-x-10-x-x-x-10-x-||
 :-x-x-x-10-x-x-x-10-x-x-x-10-x-x-x-10-x-||
 :---------------------------------------||
 :---------------------------------------||

Ending (Distortion):
[C] [E] [Am]  
 
 1:-x-x-8-x-x-x-8-x-x-x-8-x-x-x-8----------------------------------------------------------------:
 2:-x-x-8-x-x-x-8-x-x-x-8-x-x-x-8-x-x-x-9-x-x-x-9-x-x-x-9-x-x-x-9-x-x-x-10-x-x-x-10-x-x-10101010-:
 3:-x-x-9-x-x-x-9-x-x-x-9-x-x-x-9-x-x-x-9-x-x-x-9-x-x-x-9-x-x-x-9-x-x-x--9-x-x-x--9-x-x--9-9-9-9-:
 4:-------------------------------x-x-x-9-x-x-x-9-x-x-x-9-x-x-x-9-x-x-x-10-x-x-x-10-x-x-10101010-:
 5:----------------------------------------------------------------------------------------------:
 6:----------------------------------------------------------------------------------------------:

[F] [G] [C5/G]  
 
 :--------------------------------||
 :--------------------------------||
 :-2-----2-----4-----5------------||
 :-3-----3-----5-----5--<-fade->--||
 :-3-----3-----5-----3------------||
 :-1-----1-----3-----3------------||

| / slide up
| \ slide down
| h hammer-on
| p pull-off
| ~ vibrato
| x Mute note
| PM Palm mute
| PS Pick Scr*pe
===============

Important: The song above is NOT stored on the Chordie server. The original song is hosted at www.azchords.com. Chordie works as a search engine and provides on-the-fly formatting. Chordie does not index songs against artists'/composers' will. To remove this song please click here.

Text color:
Chord color:
Chord grids: 
Font size:    
Page size: 

A5 Am B5/F# C C5/G D5/A E E5 E5/B F F5 G G5 G6
Rate #1 of 2 versions

Login - add to songbook

SHARE PAGE  




You need to log in to post comments