Guitar Tabs, Chords and Lyrics
Major upgrade!! After one year development the new version of Chordie is now online! Please give feedback.


Chiquitita  ABBA

ORDER: I V1 V2 C1 V3 C2 Cd O
[INTRO] 
A | E D E E7 |
A D/A |
[VERSE 1] 
[A] Chiqui[D/A]tita, tell me what's [A]wrong[D/A] [A]
( A A A E B | E )
A A Bm A/C# D | A/C# Bm A E/G# F#m E B6 B | E
You're en - chained by your own sorrow
[(] [E] [D/F#] [E] [E7] [A] [D/A] [A] [)] 
[E]In[D/F#] your [E]eyes there is [E7/G#]no hope [A]for tomorrow[D/A] [A]
A D/A | A
How I hate to see you like this
C#m C#madd9 | C#m C#madd9
There is no way you can deny it
[E]I [D] can [E]see that you're [E7]oh, [E7sus4]so [A]sad, so quiet[D/A] [A]
[VERSE 2] 
Chiqui[D/A]tita, tell me the [A]truth[D/A]
[12] [3] [4] [5] [6] [123] [45] [6] 
[A] I'm a shoulder [A]you can cry on[E] [Esus4] [E]
[E]Your [D]best [E]friend, I'm th[(]e [E7]one[)] you [A]must rely on[D/A]
[A] You were always sure of your[A]self[D/A]
[A] Now I see you've [C#m]broken a feather[C#madd9] [C#m] [C#madd9]
[E]I [D] [E]hope we can [E7]patch it [A]up together[D/A] [A]
[CBORUS 1] 
[A] Chiquitita, you and I [D]know
[12] [3] [4] [5] [1] [2] [3] [4] 
[D] How the heartaches come and they go and the [A]scars they're leaving
[A] You'll be dancing once again[E] and the [D]pain will [E]end
You will [E7]have no [A]time for grieving
[A] Chiquitita, you and I [D]cry
[12] [3] [4] [5] [1] [2] [3] [4] 
[D] But the sun is still in the sky [E]and [A]shining above you
[A] Let me hear you sing once [E]more like you [D]did be[E]fore
Sing a [E7]new song, [A]Chiquitita
[A] Try once [E]more like you [D]did be[E]fore
Sing a [E7]new song, [A]Chiquitita[D/A] [A]
[VERSE 3] 
So the [D/A]walls came tumbling [A]down[D/A] [A]
( A | A E B | E Esus4 )
A | A Bm/A A E B | E Esus4
And your love's a blown out candle
[E]All[D] is [E]gone and it [E7]seems too [A]hard to handle[D/A] [A]
Chiqui[D/A]tita, tell me the [A]truth[D/A] [A]
A C#m C#madd9 | C#m C#madd9
There is no way you can deny it
[E]I [D] [E]see that you're [E7]oh, so [A]sad, so qui[D/A]et[A]
[CBORUS 2] 
[A] Chiquitita, you and I [D]know
[12] [3] [4] [5] [1] [2] [3] [4] 
[D] How the heartaches come and they go and the [A]scars they're leaving
[A] You'll be dancing once again[E7] and the [D]pain will [E]end
You will [E7]have no [A]time for grieving
[A] Chiquitita, [A/C#]you and I [D]cry
[12] [3] [4] [5] [1] [2] [3] [4] 
[D] But the sun is still in the sky [E]and [A]shining above you
[A] Let me hear you sing once [E]more like you [D]did be[E]fore
E7 A A A Bm | A/C# D E F#m7
Sing a new song, Chiquitita
[A]Try once [E]more like you [D]did be[E]fore
E7 A A A Bm | A/C# D E F#m7
Sing a new song, Chiquitita
[CODA] (slower)
[A]Try once [E]more like you [D]did be[E]fore
Sing a [E7]new song, [A]Chiquitita
[OUTRO] 
D-5 D5 | D-5 D5 D6 D5 | Amaj7 A | A6 A |
D-5 D5 | D-5 D5 D6 D5 | Amaj7 A | A6 A |
D-5 D5 | D-5 D5 D6 D5 | Amaj7 A | A6 A |
(fade)
D-5 D5 | D-5 D5 D6 D5 | Amaj7 A | A6 A |
 
 ------

//TAB//
Parentheses with "bass:" or "b:" show bass notes
Parentheses on top show shorthand lyrics
Parentheses with chords show that at least 1 note in the chord is not in the guitar part.
[INTRO] 
 
 e|--------------------------------------------------------------|
 B|-2-3-5-7-9-10-10/12~-----10h12p10--9------7-9-10-----7--^5----|
 G|-2-4-6-7-9-11-11/13~-----11--------9------7-9-11-----7--|4----|
 D|--------------------------------------------------------|6----|
 A|--------------------------------------------------------------|
 E|--------------------------------------------------------------|

[A] [E] [D] [E] 
(piano)
 
 e|----------------|
 B|-0-2-3-----3----|
 G|-1-2-4-----4----|
 D|----------------|
 A|----------------|
 E|----------------|

[+] [a] [3] [+] [4] [+]  
[E7]  
(going into the verse)
shorthand lyric: ch k ti ta t m what's
 
 e|-------0-------0-----------------|---------------------------------|
 B|-----------------------3-------3-|-------2-------2-------3-------3-|
 G|-----2-------2-------------------|-----2-------2-------------------|
 D|---2-------2-------2-4-----2-4---|---2-------2-------2-4-----2-4---|
 A|-0-------0-------0-------0-------|-0-------0-------0-------0-------|
 E|---------------------------------|---------------------------------|

1 e + a 2 e + a 3 e + a 4 e + a 1 e + a 2 e + a 3 e + a 4 e + a
[A5] [Dadd9/A] [A] [Dadd9/A] 
[VERSE 1] 
 
 E|---------------------------------|-------------------5---------5---|
 B|-------2-------2-------3-------3-|-------2-----2-3-5---5---5h7-----|
 G|-----2-------2-------------------|-----2-------2-4-----------------|
 D|---2-------2-------2-4-----2-4---|---2-------2-----------7-------7-|
 A|-0-------0-------0-------0-------|-0-------0---0-2-4-------5-------|
 E|---------------------------------|---------------------------------|

1 e + a 2 e + a 3 e + a 4 e + a 1 e + a 2 e + a 3 e + a 4 e + a
[A5] [Dadd9/A] [A] [A] [Bm] [A/C#] [D] 
 
 e|---5---5---5-------------------------|---------------------------------|
 B|-5---3---2-----5---------------------|---------------------------------|
 G|-------------4---2h4p2---1---1-------|-------1-------1-------1-------1-|
 D|-----------------------------1---4p2-|-2---2-------2-------2-------2---|
 A|-4---2---0-----------------------2---|---2-------2-------2-------2-----|
 E|-------------4---2-------0-----------|-0-------0-------0-------0-------|

1 + e a 2 e + a 3 e + a 4 e + a 1 e + a 2 e + a 3 e + a 4 e + a
[A/C#] [Bm7] [A] [E/G#] [F#m] [E] [B6] [B] [E] 
 
 e|---------------------------------|-------------------------2---0---|
 B|---------------------3-----------|-------------0-2-3---3-----------|
 G|-------1-------1-2-----------2---|-1-----------------4-------------|
 D|-----2-------2-----0---0---0---0-|---2-------------6---------------|
 A|---2-------2---------------------|-----2---------------------------|
 E|-0-------0-------2-------2-------|-0-----0-------------------------|

1 e + a 2 e + a 3 e + a 4 e + a 1 e + a 2 e + a 3 e + a 4 e + a
[E] [D/F#] [E] [E7/G#] 
(how ih8 2 c u lk)
 
 e|---------------------------------|---------------------------------|
 B|-------2-------2-------3-------3-|-------2-------2-------3-------3-|
 G|-----2---2---2-------------------|-----2-------2-------------------|
 D|-----------2-------2-4-----2-4---|---2-------2-------2-4-----2-4---|
 A|-0---------------0-------0-------|-0-------0-------0-------0-------|
 E|---------------------------------|---------------------------------|

1 e + a 2 e + a 3 e + a 4 e + a 1 e + a 2 e + a 3 e + a 4 e + a
[A] [Dadd9/A] [A] [Dadd9/A] 
 
 e|--------9--------9-------10------10-|--------9--------9--------9--------9-|
 B|-----10-------10-------7-------7----|-----10-------10-------10-------10---|
 G|---9--------9--------9-------9------|---9--------9--------9--------9------|
 D|----------7--------7-------7--------|----------7--------7--------7--------|
 A|-0----------------------------------|-0-----------------------------------|
 E|-------------------------------0----|-------------------------------------|

A Dadd9/A A bass:( B C )
 
 e|--------9--------9--------11--------11-|--------12--------12--------11--------11-|
 B|------9--------9--------9---------9----|------9---------9---------9---------9----|
 G|----9--------9--------9---------9------|----9---------9---------9---------9------|
 D|-11-------11-------11--------11--------|-11--------11--------11--------11--------|
 A|---------------------------------------|-----------------------------------------|
 E|---------------------------------------|-----------------------------------------|

[C#m] [C#madd9] [C#m] [C#madd9] 
 
 e|-------------------------10-9-10---7---|--------------------4-------4-------0-|
 B|-------9-9h10p9p7-9-10-----------------|-10p9p7---9-----0-5-------5-------3---|
 G|-----9-----------------7---------7---7-|------------------------4-------2-----|
 D|---9----------------0------------------|--------------6-----------------------|
 A|---------------------------------------|------------7-------------------------|
 E|-0-------------------------------------|-0--------7-----------0-------0-------|

1 e + a 2 e + a 3 e + a 4 e + a 1 e + a 2 e + a 3 e + a 4 e + a
[E] [D] [E] [E7sus4] 
 
 e|---------------------------------|---------------------------------|
 B|-------2-------2-------3-------3-|-------2-------2-------3-------3-|
 G|-----2-------2-------------------|-----2-------2-------------------|
 D|---2-------2-------2-4-----2-4---|---2-------2-------2-4-----2-4---|
 A|-0-------0-------0-------0-------|-0-------0-------0-------0-------|
 E|---------------------------------|---------------------------------|

1 e + a 2 e + a 3 e + a 4 e + a 1 e + a 2 e + a 3 e + a 4 e + a
[A] [Dadd9/A] [A] [Dadd9/A] 
[VERSE 2] 
(chq ti ta tlmeth)
 
 e|---------------------------------|---------------------------------|
 B|-2-------2-----2-3-------3-----3-|-2-------2-----2-3-------3-----3-|
 G|---2---2---2-----------2-----2---|---2---2---2-----------2-----2---|
 D|-----2-------2-----2-4-----4-----|-----2-------2-----2-4-----4-----|
 A|-0-------0-------0-------0-------|-0-------0-------0-------0-------|
 E|---------------------------------|---------------------------------|

1 e + a 2 e + a 3 e + a 4 e + a 1 e + a 2 e + a 3 e + a 4 e + a
[A] [Dadd9/A] [A] [Dadd9/A] 
 
 e|---------------------------------|-------------------------------------------------|
 B|-2-------2-----2-3-------3-----3-|-2-------2-----------2-------2---2---------------|
 G|---2---2---2-----------2-----2---|---2---2---2---2---2---2---2---2-----4---2---1---|
 D|-----2-------2-----2-4-----4-----|-----2-------2---2-------2-----------------------|
 A|-0-------0-------0-------0-------|-0-------0-------0-------0-------0---------------|
 E|---------------------------------|-------------------------------------4---2---0---|

1 e + a 2 e + a 3 e + a 4 e + a 1 e + a 2 e + a 3 e + a 4 e + a 5 e + a 6 e + a
[A] [Dadd9/A] [A] [A] [E7/G#] [F#m] [E] 
 
 e|-------0---------------0---------------0---------|
 B|-----0-------0-------0-------0-------0-------0---|
 G|---1-------1---1---2-------2---2---1-------1---1-|
 D|-2---------------2---------------2---------------|
 A|-------------------------------------------------|
 E|-------------------------------------------------|

1 e + a 2 e + a 3 e + a 4 e + a 5 e + a 6 e + a
[E] [Esus4] [E]  
 
 e|-------0---------------2---------|-------4---------------4---------|
 B|-----0-------0-------3-------3---|-----5---5-----------5---5-------|
 G|---1-------1---1---2-------2---2-|---4-------4---4---4-------4---4-|
 D|-2---------------0---------------|-2-----------2---2-----------2---|
 A|---------------------------------|---------------------------------|
 E|---------------------------------|---------------------------------|

1 e + a 2 e + a 3 e + a 4 e + a 1 e + a 2 e + a 3 e + a 4 e + a
[E] [D] [E] [(] [E7] [)] 
u wral wayss o ur
 
 e|---------------------------------|---------------------------------|
 B|-2-------2-----2-3-------3-----3-|-2-------2-----2-3-------3-----3-|
 G|---2---2---2-----------2-----2---|---2---2---2-----------2-----2---|
 D|-----2-------2-----2-4-----4-----|-----2-------2-----2-4-----4-----|
 A|-0-------0-------0-------0-------|-0-------0-------0-------0-------|
 E|---------------------------------|---------------------------------|

1 e + a 2 e + a 3 e + a 4 e + a 1 e + a 2 e + a 3 e + a 4 e + a
[A] [Dadd9/A] [A] [Dadd9/A] 
 
 e|---------------------------------|---------------------------------|
 B|-2-------2-----2-3-------3-----3-|-2-------2-------2-------2-------|
 G|---2---2---2-----------2-----2---|---2---2---2---2---2---2---2---2-|
 D|-----2-------2-----2-4-----4-----|-----2-------2-------2-------2---|
 A|-0-------0-------0-------0-------|-0-------0-------0-------0-------|
 E|---------------------------------|---------------------------------|

1 e + a 2 e + a 3 e + a 4 e + a 1 e + a 2 e + a 3 e + a 4 e + a
A Dadd9/A b: ( E ) A Dadd9/A ( B )
 
 e|-----------------4---------------|-------------4-------------------|
 B|-------5-----5-----5-4-5-4-------|-------5-----------5-------------|
 G|-----6---------------------6-----|-----6-------------------6-------|
 D|---6-------6-----------------6---|---6-------------------6---6-----|
 A|-4-------4-----------------------|-4---------------------------4---|
 E|---------------------------------|---------------------------------|

1 e + a 2 e + a 3 e + a 4 e + a 1 e + a 2 e + a 3 e + a 4 e + a
 
 e|-------0---------------2---------|-------4---------------4---------|
 B|-----0-------0-------3-------3---|-----5---5-----------5---5---3---|
 G|---1-------1---1---2-------2---2-|---4-------4---4---4-------4---4-|
 D|-2---------------0---------------|-2-----------2---2---------------|
 A|---------------------------------|---------------------------------|
 E|---------------------------------|---------------------------------|

1 e + a 2 e + a 3 e + a 4 e + a 1 e + a 2 e + a 3 e + a 4 e + a
[E] [D] [E] [E7] 
 
 e|---------------------------------|----------------------------------|
 B|-------2-------2-------3-------3-|-^2-------------------------------|
 G|-----2---2---2-------------------|-|2-------------------------------|
 D|-----------2-------2-4-----2-4---|-|2-------------------------------|
 A|-0---------------0-------0-------|-|0-------------------------------|
 E|---------------------------------|----------------------------------|

1 e + a 2 e + a 3 e + a 4 e + a 1 e + a 2 e + a 3 e + a 4 e + a
[A] [Dadd9/A] [A] 

Important: The song above is NOT stored on the Chordie server. The original song is hosted at www.azchords.com. Chordie works as a search engine and provides on-the-fly formatting. Chordie does not index songs against artists'/composers' will. To remove this song please click here.

Text color:
Chord color:
Chord grids: 
Font size:    
Page size: 

A A/C# A5 B B6 Bm Bm7 C#m C#madd9 D D/F# Dadd9/A E E/G# E7 E7/G# E7sus4 Esus4 F#m
Rate #1 of 13 versions

Jango Player

Login - add to songbook

SHARE PAGE  




You need to log in to post comments