Guitar Tabs, Chords and Lyrics
Major upgrade!! After one year development the new version of Chordie is now online! Please give feedback.


Rocker  AC/DC

(Live)
AC/DC - Rocker (Live in Colchester, England, Oct 28 1978)
Colchester England, October 28, 1978. "Problem Child" from this concert can be seen in
DVD Plug Me In.
Intro
[G1]  
 
 |----------------------------------------------------|
 |----------------------------------------------------|
 |------------------------2---------------------------|
 |--2-----------------0h2-2-4---------2---------------|
 |--0-----------------0---0-0---------0---------------|
 |----------------------------------------------------|

[G1]  
 
 |----------------|----------------|----------------|----------------|
 |----------------|----------------|----------------|----------------|
 |--2-------------|----------------|--2-------------|----------------|
 |--2-------------|----------------|--2-------------|----------------|
 |--0-------------|----------------|--0-------------|----------------|
 |----------------|----------------|----------------|----------------|

[G2]  
 
 |----------------|----------------|----------------|----------------|
 |----------------|----------------|----------------|----------------|
 |--------2-------|--------2-------|--------2-------|--------2-------|
 |--0h2---2-4--2--|--0h2---2-4--2--|--0h2---2-4--2--|--0h2---2-4--2--|
 |--0-----0-0--0--|--0-----0-0--0--|--0-----0-0--0--|--0-----0-0--0--|
 |----------------|----------------|----------------|----------------|

[G1]  
 
 |----------------|----------------|----------------|----------------|
 |----------------|----------------|----------------|----------------|
 |--2-------------|----------------|--2-----2----2--|--2--2--2--2--2-|
 |--2-------------|----------------|--2-----2----2--|--2--2--2--2--2-|
 |--0-------------|----------------|--0-----0----0--|--0--0--0--0--0-|
 |----------------|----------------|----------------|----------------|

[G2]  
 
 |----------------|----------------|----------------|----------------|
 |----------------|----------------|----------------|----------------|
 |--------2-------|--------2-------|--------2-------|--------2-------|
 |--0h2---2-4--2--|--0h2---2-4--2--|--0h2---2-4--2--|--0h2---2-4--2--|
 |--0-----0-0--0--|--0-----0-0--0--|--0-----0-0--0--|--0-----0-0--0--|
 |----------------|----------------|----------------|----------------|

G1 & G2
 
 |----------------|----------------|----------------|----------------|
 |----------------|----------------|----------------|----------------|
 |--------2-------|--------2-------|--------2-------|--------2-------|
 |--0h2---2-4--2--|--0h2---2-4--2--|--0h2---2-4--2--|--0h2---2-4--2--|
 |--0-----0-0--0--|--0-----0-0--0--|--0-----0-0--0--|--0-----0-0--0--|
 |----------------|----------------|----------------|----------------|
 |----------------|----------------|----------------|----------------|
 |----------------|----------------|----------------|----------------|
 |--------2-------|--------2-------|--------2-------|--------2-------|
 |--0h2---2-4--2--|--0h2---2-4--2--|--0h2---2-4--2--|--0h2---2-4--2--|
 |--0-----0-0--0--|--0-----0-0--0--|--0-----0-0--0--|--0-----0-0--0--|
 |----------------|----------------|----------------|----------------|
 |----------------|----------------|----------------|----------------|
 |----------------|----------------|----------------|----------------|
 |--------2-------|--------2-------|--------2-------|--------2-------|
 |--0h2---2-4--2--|--0h2---2-4--2--|--0h2---2-4--2--|--0h2---2-4--2--|
 |--0-----0-0--0--|--0-----0-0--0--|--0-----0-0--0--|--0-----0-0--0--|
 |----------------|----------------|----------------|----------------|

Rocker Roller Right out of controller
 
 |----------------|----------------|----------------|----------------|
 |--------3-------|--------3-------|----------------|----------------|
 |--0h2---2-4--2--|--0h2---2-4--2--|--------2-------|--------2-------|
 |--0-----0-0--0--|--0-----0-0--0--|--0h2---2-4--2--|--0h2---2-4--2--|
 |----------------|----------------|--0-----0-0--0--|--0-----0-0--0--|
 |----------------|----------------|----------------|----------------|

Wheeler Dealer I‚??m a Wicked woman stealer
 
 |----------------|----------------|----------------|----------------|
 |----------------|----------------|----------------|----------------|
 |----------------|----------------|--------2-------|--------2-------|
 |--------2-------|--------2-------|--0h2---2-4--2--|--0h2---2-4--2--|
 |--0h2---2-4--2--|--0h2---2-4--2--|--0-----0-0--0--|--0-----0-0--0--|
 |--0-----0-0--0--|--0-----0-0--0--|----------------|----------------|

Cruiser ooh! Rock and rollin‚?? man
 
 |----------------|----------------|----------------|----------------|
 |----------------|----------------|----------------|----------------|
 |--2-------------|----------------|--2-------------|----------------|
 |--2-------------|----------------|--2-------------|----------------|
 |--0-------------|----------------|--0-------------|----------------|
 |----------------|----------------|----------------|----------------|

Slicked back hair Skin tight jeans
 
 |----------------|----------------|----------------|----------------|
 |----------------|----------------|--3-------------|----------------|
 |--2-------------|----------------|--2-------------|----------------|
 |--2-------------|----------------|--0-------------|----------------|
 |--0-------------|----------------|----------------|----------------|
 |----------------|----------------|----------------|----------------|

Cadillac car and a teenage dream
 
 |----------------|----------------|----------------|----------------|
 |--------3-------|--------3-------|----------------|----------------|
 |--0h2---2-4--2--|--0h2---2-4--2--|--------2-------|--------2-------|
 |--0-----0-0--0--|--0-----0-0--0--|--0h2---2-4--2--|--0h2---2-4--2--|
 |----------------|----------------|--0-----0-0--0--|--0-----0-0--0--|
 |----------------|----------------|----------------|----------------|

Rocker Roller Rocker Roller
 
 |----------------|----------------|----------------|----------------|
 |----------------|----------------|----------------|----------------|
 |----------------|----------------|--------2-------|--------2-------|
 |--------2-------|--------2-------|--0h2---2-4--2--|--0h2---2-4--2--|
 |--0h2---2-4--2--|--0h2---2-4--2--|--0-----0-0--0--|--0-----0-0--0--|
 |--0-----0-0--0--|--0-----0-0--0--|----------------|----------------|

Rocker Rock and rollin‚?? man
Solo 1:
[G2]  
 
 |----------------|----------------|----------------|----------------|
 |----------------|----------------|----------------|----------------|
 |--------2-------|--------2-------|--------2-------|--------2-------|
 |--0h2---2-4--2--|--0h2---2-4--2--|--0h2---2-4--2--|--0h2---2-4--2--|
 |--0-----0-0--0--|--0-----0-0--0--|--0-----0-0--0--|--0-----0-0--0--|
 |----------------|----------------|----------------|----------------|
 |----------------|----------------|----------------|----------------|
 |--------3-------|--------3-------|----------------|----------------|
 |--0h2---2-4--2--|--0h2---2-4--2--|--------2-------|--------2-------|
 |--0-----0-0--0--|--0-----0-0--0--|--0h2---2-4--2--|--0h2---2-4--2--|
 |----------------|----------------|--0-----0-0--0--|--0-----0-0--0--|
 |----------------|----------------|----------------|----------------|
 |----------------|----------------|----------------|----------------|
 |----------------|----------------|----------------|----------------|
 |----------------|----------------|--------2-------|--------2-------|
 |--------2-------|--------2-------|--0h2---2-4--2--|--0h2---2-4--2--|
 |--0h2---2-4--2--|--0h2---2-4--2--|--0-----0-0--0--|--0-----0-0--0--|
 |--0-----0-0--0--|--0-----0-0--0--|----------------|----------------|
 |----------------|----------------|----------------|----------------|
 |----------------|----------------|----------------|----------------|
 |--------2-------|--------2-------|--------2-------|--------2-------|
 |--0h2---2-4--2--|--0h2---2-4--2--|--0h2---2-4--2--|--0h2---2-4--2--|
 |--0-----0-0--0--|--0-----0-0--0--|--0-----0-0--0--|--0-----0-0--0--|
 |----------------|----------------|----------------|----------------|
 |----------------|----------------|----------------|----------------|
 |--------3-------|--------3-------|----------------|----------------|
 |--0h2---2-4--2--|--0h2---2-4--2--|--------2-------|--------2-------|
 |--0-----0-0--0--|--0-----0-0--0--|--0h2---2-4--2--|--0h2---2-4--2--|
 |----------------|----------------|--0-----0-0--0--|--0-----0-0--0--|
 |----------------|----------------|----------------|----------------|
 |----------------|----------------|----------------|----------------|
 |----------------|----------------|----------------|----------------|
 |----------------|----------------|--------2-------|--------2-------|
 |--------2-------|--------2-------|--0h2---2-4--2--|--0h2---2-4--2--|
 |--0h2---2-4--2--|--0h2---2-4--2--|--0-----0-0--0--|--0-----0-0--0--|
 |--0-----0-0--0--|--0-----0-0--0--|----------------|----------------|

G1 & G2
 
 |----------------|----------------|----------------|----------------|
 |----------------|----------------|----------------|----------------|
 |--2-------------|----------------|--2-------------|----------------|
 |--2-------------|----------------|--2-------------|----------------|
 |--0-------------|----------------|--0-------------|----------------|
 |----------------|----------------|----------------|----------------|

Lorex socks Blue Suede shoes
 
 |----------------|----------------|----------------|----------------|
 |----------------|----------------|--3-------------|----------------|
 |--2-------------|----------------|--2-------------|----------------|
 |--2-------------|----------------|--0-------------|----------------|
 |--0-------------|----------------|----------------|----------------|
 |----------------|----------------|----------------|----------------|

V8 car, ooh! And tatoo‚??s!
 
 |----------------|----------------|----------------|----------------|
 |--------3-------|--------3-------|----------------|----------------|
 |--0h2---2-4--2--|--0h2---2-4--2--|--------2-------|--------2-------|
 |--0-----0-0--0--|--0-----0-0--0--|--0h2---2-4--2--|--0h2---2-4--2--|
 |----------------|----------------|--0-----0-0--0--|--0-----0-0--0--|
 |----------------|----------------|----------------|----------------|

Rocker Roller Rocker Roller
 
 |----------------|----------------|----------------|----------------|
 |----------------|----------------|----------------|----------------|
 |----------------|----------------|--------2-------|--------2-------|
 |--------2-------|--------2-------|--0h2---2-4--2--|--0h2---2-4--2--|
 |--0h2---2-4--2--|--0h2---2-4--2--|--0-----0-0--0--|--0-----0-0--0--|
 |--0-----0-0--0--|--0-----0-0--0--|----------------|----------------|

Rocker Rock and rollin‚?? man, ya ya ya ya ya ya yaaaoww!
 
 |----------------|----------------|----------------|----------------|
 |----------------|----------------|----------------|----------------|
 |--------2-------|--------2-------|--------2-------|--------2-------|
 |--0h2---2-4--2--|--0h2---2-4--2--|--0h2---2-4--2--|--0h2---2-4--2--|
 |--0-----0-0--0--|--0-----0-0--0--|--0-----0-0--0--|--0-----0-0--0--|
 |----------------|----------------|----------------|----------------|
 |----------------|----------------|----------------|----------------|
 |--------3-------|--------3-------|----------------|----------------|
 |--0h2---2-4--2--|--0h2---2-4--2--|--------2-------|--------2-------|
 |--0-----0-0--0--|--0-----0-0--0--|--0h2---2-4--2--|--0h2---2-4--2--|
 |----------------|----------------|--0-----0-0--0--|--0-----0-0--0--|
 |----------------|----------------|----------------|----------------|
 |----------------|----------------|----------------|----------------|
 |----------------|----------------|----------------|----------------|
 |----------------|----------------|--------2-------|--------2-------|
 |--------2-------|--------2-------|--0h2---2-4--2--|--0h2---2-4--2--|
 |--0h2---2-4--2--|--0h2---2-4--2--|--0-----0-0--0--|--0-----0-0--0--|
 |--0-----0-0--0--|--0-----0-0--0--|----------------|----------------|
 |----------------|----------------|----------------|----------------|
 |----------------|----------------|----------------|----------------|
 |--------2-------|--------2-------|--------2-------|--------2-------|
 |--0h2---2-4--2--|--0h2---2-4--2--|--0h2---2-4--2--|--0h2---2-4--2--|
 |--0-----0-0--0--|--0-----0-0--0--|--0-----0-0--0--|--0-----0-0--0--|
 |----------------|----------------|----------------|----------------|
 |----------------|----------------|----------------|----------------|
 |----------------|----------------|----------------|----------------|
 |--------2-------|--------2-------|--------2-------|--------2-------|
 |--0h2---2-4--2--|--0h2---2-4--2--|--0h2---2-4--2--|--0h2---2-4--2--|
 |--0-----0-0--0--|--0-----0-0--0--|--0-----0-0--0--|--0-----0-0--0--|
 |----------------|----------------|----------------|----------------|

Rocker Roller Rocker Roller
 
 |----------------|----------------|----------------|----------------|
 |--------3-------|--------3-------|----------------|----------------|
 |--0h2---2-4--2--|--0h2---2-4--2--|--------2-------|--------2-------|
 |--0-----0-0--0--|--0-----0-0--0--|--0h2---2-4--2--|--0h2---2-4--2--|
 |----------------|----------------|--0-----0-0--0--|--0-----0-0--0--|
 |----------------|----------------|----------------|----------------|

Rocker Roller Rocker Roller
 
 |----------------|----------------|----------------|----------------|
 |----------------|----------------|----------------|----------------|
 |----------------|----------------|--2-------------|-------------2--|
 |--------2-------|--------2-------|--2-------------|-------------2--|
 |--0h2---2-4--2--|--0h2---2-4--2--|--0-------------|---0--2--4---0--|
 |--0-----0-0--0--|--0-----0-0--0--|----------------|----------------|

Rocker
 
 |----------------|----------------|----------------|----------------|
 |----------------|----------------|----------------|----------------|
 |--222222222222222222222222222222-|----------------|----------------|
 |--222222222222222222222222222222-|----------------|----------------|
 |--000000000000000000000000000000-|----------------|----------------|
 |----------------|----------------|----------------|----------------|

Solo 2:
[G2]  
 
 |----------------|----------------|----------------|----------------|
 |----------------|----------------|----------------|----------------|
 |--------2-------|--------2-------|--------2-------|--------2-------|
 |--0h2---2-4--2--|--0h2---2-4--2--|--0h2---2-4--2--|--0h2---2-4--2--| x16
 |--0-----0-0--0--|--0-----0-0--0--|--0-----0-0--0--|--0-----0-0--0--|
 |----------------|----------------|----------------|----------------|

G1 & G2
 
 |----------------|----------------|----------------|----------------|
 |----------------|----------------|----------------|----------------|
 |--------2-------|--------2-------|--------2-------|--------2-------|
 |--0h2---2-4--2--|--0h2---2-4--2--|--0h2---2-4--2--|--0h2---2-4--2--|
 |--0-----0-0--0--|--0-----0-0--0--|--0-----0-0--0--|--0-----0-0--0--|
 |----------------|----------------|----------------|----------------|

Rocker Roller Rocker Roller
 
 |----------------|----------------|----------------|----------------|
 |--------3-------|--------3-------|----------------|----------------|
 |--0h2---2-4--2--|--0h2---2-4--2--|--------2-------|--------2-------|
 |--0-----0-0--0--|--0-----0-0--0--|--0h2---2-4--2--|--0h2---2-4--2--|
 |----------------|----------------|--0-----0-0--0--|--0-----0-0--0--|
 |----------------|----------------|----------------|----------------|

Rocker Roller I‚??m right out a controller
 
 |----------------|----------------|----------------|----------------|
 |----------------|----------------|----------------|----------------|
 |----------------|----------------|--------2-------|--------2-------|
 |--------2-------|--------2-------|--0h2---2-4--2--|--0h2---2-4--2--|
 |--0h2---2-4--2--|--0h2---2-4--2--|--0-----0-0--0--|--0-----0-0--0--|
 |--0-----0-0--0--|--0-----0-0--0--|----------------|----------------|

Rocker Rock and rollin‚?? man
 
 |----------------|----------------|----------------|----------------|
 |----------------|----------------|----------------|----------------|
 |--------2-------|--------2-------|--------2-------|--------2-------|
 |--0h2---2-4--2--|--0h2---2-4--2--|--0h2---2-4--2--|--0h2---2-4--2--|
 |--0-----0-0--0--|--0-----0-0--0--|--0-----0-0--0--|--0-----0-0--0--|
 |----------------|----------------|----------------|----------------|

I‚??m a Rocker Rocker Roller ya ya ya!
 
 |----------------|----------------|----------------|----------------|
 |--------3-------|--------3-------|----------------|----------------|
 |--0h2---2-4--2--|--0h2---2-4--2--|--------2-------|--------2-------|
 |--0-----0-0--0--|--0-----0-0--0--|--0h2---2-4--2--|--0h2---2-4--2--|
 |----------------|----------------|--0-----0-0--0--|--0-----0-0--0--|
 |----------------|----------------|----------------|----------------|

Rocker Roller Rocker Roller
 
 |----------------|----------------|----------------|----------------|
 |----------------|----------------|----------------|----------------|
 |----------------|----------------|--------2-------|-------------2--|
 |--------2-------|--------2-------|--0h2---2-4--2--|-------------2--|
 |--0h2---2-4--2--|--0h2---2-4--2--|--0-----0-0--0--|----0--2--4--0--|
 |--0-----0-0--0--|--0-----0-0--0--|----------------|----------------|

I‚??m a Rocker Rock and rollin‚?? maaaaaaaaaan!
[G2]  
 
 |----------------|----------------|----------------|----------------|
 |----------------|----------------|----------------|----------------|

|--22222222222222222222222222222222222222222222222222222222222222222|
|--22222222222222222222222222222222222222222222222222222222222222222|
|--00000000000000000000000000000000000000000000000000000000000000000|
 
 |----------------|----------------|----------------|----------------|
 |----------------|----------------|----------------|----------------|
 |----------------|----------------|----------------|----------------|
 |2222222222222222222222222222222222222222222222-----------------2---|
 |2222222222222222222222222222222222222222222222-----------------2---|
 |0000000000000000000000000000000000000000000000-----------------0---|
 |----------------|----------------|----------------|----------------|


Important: The song above is NOT stored on the Chordie server. The original song is hosted at www.azchords.com. Chordie works as a search engine and provides on-the-fly formatting. Chordie does not index songs against artists'/composers' will. To remove this song please click here.

Text color:
Chord color:
Chord grids: 
Font size:    
Page size: 

G2
Rate #1 of 1 versions

Jango Player

Login - add to songbook

SHARE PAGE  




You need to log in to post comments