Guitar Tabs, Chords and Lyrics
Major upgrade!! After one year development the new version of Chordie is now online! Please give feedback.


There's Gonna Be Some Rockin'  AC/DC

4x D, 2x G, 2x D, 1x A, 1x G, 2x D
[D]  
 
 E|-----------------------|
 B|--3--3--3----3----3----|
 G|--2--2--4----2----4----|
 D|--0--0--0----0----0----|
 A|-----------------------|
 E|-----------------------|

[A]  
 
 E|-----------------------|
 B|-----------------------|
 G|-----------------------|
 D|--2--2--4----2----4----|
 A|--0--0--0----0----0----|
 E|-----------------------|

[G]  
 
 E|-----------------------|
 B|-----------------------|
 G|-----------------------|
 D|-----------------------|
 A|--5--5--7----5----7----|
 E|--3--3--3----3----3----|

[D]Well me and the boys
Are out to have some fun
Gonna put on a show
Come on, let's go
Chorus:
[G]There's gonna be some rockin'
[D]There's gonna be some rockin'
[A]There's gonna be some rockin' [G]at the show tonight[D]
[D]Every night there's a rock 'n' roll queen
Gonna quiver and quake
Gonna shake her thing
Chorus
[G]There's gonna be some rockin'
[D]There's gonna be some rockin'
[A]There's gonna be some rockin' [G]at the show tonight[D]
(It's a rock 'n' roll show)
Guitarsolo 1
[D]We got a big fat sound
Wanna share it round
Got a big bass drum
Gonna have some fun
Chorus
[G]There's gonna be some rockin'
[D]There's gonna be some rockin'
[A]There's gonna be some rockin' [G]at the show tonight[D]
C'mon
[D]There's gonna be some rockin'
[D]There's gonna be some rockin'
[G]There's gonna be some rockin'
[D]There's gonna be some rockin'
[A]There's gonna be some rockin' [G]at the show tonight[D]
[D]There's gonna be some rockin'
[D]There's gonna be some rockin'
[G]There's gonna be some rockin'
[D]There's gonna be some rockin'
[A]There's gonna be some rockin' [G]at the show tonight[D]
[A]Hey there's gonna be some rockin' [G]at the show tonight[D]
[A]Oh there's gonna be some rockin'[G] at the show tonight[D]

Important: The song above is NOT stored on the Chordie server. The original song is hosted at www.azchords.com. Chordie works as a search engine and provides on-the-fly formatting. Chordie does not index songs against artists'/composers' will. To remove this song please click here.

Text color:
Chord color:
Chord grids: 
Font size:    
Page size: 

A D G
Rate #1 of 2 versions

Login - add to songbook

SHARE PAGE  




You need to log in to post comments