Guitar Tabs, Chords and Lyrics
Update 25:10. 13:00. Site is back up running again. Songbooks are recovered. Woring on getting search back up..


Into the Night  Ace Frehley

?uning:EADGBE
[Em] [C] [D] [G5]  
 
 e|-0---0---2---3--------------------------------------------------------|
 B|-0---1---3---3--------------------------------------------------------|
 G|-0---0---2---0--------------------------------------------------------|
 D|-2---2---0---0--------------------------------------------------------|
 A|-2---3---0---0--------------------------------------------------------|
 E|-0---x---x---3--------------------------------------------------------|

[Em] [C] [D] [G]  
 
 e|-7---x---x---x--------------------------------------------------------|
 B|-8---5---7---x--------------------------------------------------------|
 G|-9---5---7---4--------------------------------------------------------|
 D|-9---5---7---5--------------------------------------------------------|
 A|-7---3---5---5--------------------------------------------------------|
 E|-7---x---x---3--------------------------------------------------------|

Intro:
[Em]  
 
 e|-0-0---0-0---0-0---0-0---0-0---0-0---0-0---0-0------------------------|
 B|-0-0---0-0---0-0---0-0---0-0---0-0---0-0---0-0------------------------|
 G|-0-0---0-0---0-0---0-0---0-0---0-0---0-0---0-0------------------------|
 D|-2-2---2-2---2-2---2-2---2-2---2-2---2-2---2-2------------------------|
 A|-2-2---2-2---2-2---2-2---2-2---2-2---2-2---2-2------------------------|
 E|-0-0---0-0---0-0---0-0---0-0---0-0---0-0---0-0------------------------|

[d] [u] [d] [u] [d] [u] [d] [u] [d] [u] [d] [u] [d] [u] [d] [u] 
Verses:
[Em] [C] [D] [D]  
 
 e|-0-0---0-0---0-0---0-0---0-0---0-0---0-0---0-0---0-0---2---2-2--------|
 B|-0-0---0-0---0-0---0-0---0-0---0-0---0-0---0-0---1-1---3---3-3--------|
 G|-0-0---0-0---0-0---0-0---0-0---0-0---0-0---0-0---0-0---2---2-2--------|
 D|-2-2---2-2---2-2---2-2---2-2---2-2---2-2---2-2---2-2---0---0-0--------|
 A|-2-2---2-2---2-2---2-2---2-2---2-2---2-2---2-2---3-3---0---0-0--------|
 E|-0-0---0-0---0-0---0-0---0-0---0-0---0-0---0-0---x-x---x---x-x--------|

[d] [u] [d] [u] [d] [u] [d] [u] [d] [u] [d] [u] [d] [u] [d] [u] 
[Em]Two a.m., on a downtown street
There on the corner, two strangers meet in the [C]night[D] [D]
[Em]And then until the daybreak they're gonna love
And before the light [C]a heart may bre[D]ak,[D] the[C]re in the [D]nigh[Em]t
[D]Look in the alleys, along the roads, it's [C]there the losers stand
[D]There in the ring, they bide their time, hus[C]tling what they
They be[C]g just to get that b[D]ottle in their hand
[Em]There in[C] the ni[D]ght, so[D]mewhere [Em]in the ni[C]ght
[Em]Oh, how [C]they do[D], what t[Em]hey do[D]
[D]Just to [Em]get thro[C]ugh
[D]There in the night, i[C]n the night[Em]
[Em]Then on the street in the heart of town
A lady in black, she turns around, in the nig[C]ht, y[D]eah[D]
[Em]She stares at the man in the Cadillac
He drives by but he'll be back [C]for the nig[D]ht[D], t[C]here in t[D]he nig[Em]ht
[D]See the guy along the road[C], who can he be?
[D]Wait awhile, he'll turn around se[C]e the man is me
[C]'Cause when I sing my drea[D]ms, my dreams will set me free
[Em]There in[C] the ni[D]ght, so[D]mewhere [Em]in the ni[C]ght
[Em]Oh, how [C]they do[D], what t[Em]hey do[D]
[D]Just to [Em]get thro[C]ugh
[D]There in the night, i[C]n the night[Em]
[G5]When the sun goes down and the light[C] grows dim
[G5]Slowly move in for the k[D]ill
If you would c[C]ome back again, it would take away this pain
[D]But I don't know if you ever [D]will
[Em]Love in [C]the nig[D]ht, wou[D]ld feel [Em]so right[C]
[Em]Oh, how [C]they do[D], what t[Em]hey do[D]
[D]Just to [Em]get thro[C]ugh
[D]Love me tonight, here[C] in the nigh[Em]t, in the night
[Em]Into the[C] night,[D] it fee[D]ls so ri[Em]ght[C]
[Em]Oh, how [C]they do[D], what t[C]hey do[D]
[D]Just to [Em]get thro[C]ugh
[D]There in the night, i[C]n the night [Em]

Important: The song above is NOT stored on the Chordie server. The original song is hosted at www.azchords.com. Chordie works as a search engine and provides on-the-fly formatting. Chordie does not index songs against artists'/composers' will. To remove this song please click here.

Text color:
Chord color:
Chord grids: 
Font size:    
Page size: 

C D Em G G5
Rate #1 of 1 versions

Login - add to songbook

SHARE PAGE  



You need to log in to post comments