Guitar Tabs, Chords and Lyrics
Server problems seems to be fixed. Chordie has been experiencing problems with songs disappearing. These issues now seems to be fixed, but still verifying the fix. If you find anything strange, please email admin@chordie.com.


Ain't That a Bitch  Aerosmith

Symbols used in transcription:
h = hammer-on
p = pull-off
b = bend
r = release
\ = slide
~ = vibrato(or feedback, whichever applies)
x = make percussive sound with fretting hand
"Up in Smoke..." "You take a hit..."
 
 E---------------------------------------------------------------|
 B---------------------------------------------------------------|
 G---------8~~~~~~~---------8~~~-11-10~~~~~~~---------8~~~~~~----|
 D--3\(7)------------3\(7)---------------------3\(7)-------------|
 A---------------------------------------------------------------|
 E---------------------------------------------------------------|

"Strung out..."
 
 E--------------------------------------8-------8----------------|
 B---------------------------------11p8----11p8----11p8-----11p8-|
 G---------8~~~~~-\11-10~~~~~~~~~--------------------------------|
 D--3\(7)--------------------------------------------------------|
 A---------------------------------------------------------------|
 E---------------------------------------------------------------|
 E-8-------8----------------8---------------|
 B----11p8----11p8-----11p8----11p8---------|
 G------------------------------------------|
 D------------------------------------------|
 A------------------------------------------|
 E------------------------------------------|

[Gm]Up in smoke, you lost another [C]lover
As you [Gm]take a hit off your last cigar[C]ette
[G#]Strung out, [Bb]burn out
Yeah, you're [Cm]down on your luck and you [Bb]don't give a... huh
Till the [G#]best part of you [Bb]starts to twitch... ain't that a b**ch
[Cm]Freak out! I'm a[Fm]lone now!
I [Bb]feel just like I'm losing my [Eb]mind
'Cause [Eb/D]love is like the [Cm]right dress on the [G#]wrong girl
You [Eb]never know what you're gonna [Bb]find
You [Cm]think you're high and [Fm]fine as wine
Then you [Bb]wind up like a dog in a [Eb]ditch
'Cause [Eb/D]love is like a [Cm]wrong turn on a [G#]cold night
[Fm]Yeah, ain't that a [Eb]b**ch!
gliss
 
 E---------------------------------------------------------------|
 B---------------------------------------------------------------|
 G---------13--12~~~~~~~~~~~----------11--/9~~~~~~~~-/(1)--------|
 D---------------------------------------------------------------|
 A--12\13----------------------10\11-----------------------------|
 E---------------------------------------------------------------|

I haven't figured out the intermediary chords yet.
[Cm]In a daze, in the [Fm]throes of emotion
[Cm]You see God in the [Fm]devil's eyes
 
 E--------8/10--------------------|
 B----------------------10/8------|
 G--8\10--------------------------|
 D----------------8\10------------|
 A--------------------------------|
 E--------------------------------|

Then you [G#]fall so [Bb]far from grace
You [Cm]wouldn't know a [Bb]kiss if it was on your face
You could [G#]tell it to the jury but you [Bb]ain't got no case
solo- gradual gradual
 
 E---------------------------------------------------------------|
 B---------------------------------------------------------------|
 G---0--h5\7-0-h-7-b----h-9--r--9b--r-p7--\(9)--9b-r-----13b-----|
 D----------------------------------------------------x----------|
 A---------------------------------------------------------------|
 E---------------------------------------------------------------|

full P.H.
 
 E----------------------------------------------------------------------------|
 B----------------------------------------------------------------------------|
 G----r-b-r-13b-r/----0--h8b---8r\(10)\(13)~~~~~-13/(5)-5p3---3---------------|
 D------------------5---------------------------------------5-----------------|
 A----------------------------------------------------------------------------|
 E----------------------------------------------------------------------------|
 P.H. |-----v------------------|
 E-----------3----6p3-----3--------------------13~~~-13-----------------------|
 B-------------3------3-6--------------------x----------13--------------------|
 G-3b-rp0--------------------0-3b-rp0--------x-------------16p13--------------|
 D--------3---------------------------5\(13)----------------------------------|
 A----------------------------------------------------------------------------|
 E----------------------------------------------------------------------------|
 |----v--------|
 E----------------13-13~~~~~--------------------------------------------------|
 B----------------------------15-17b-r~~~-15-17-17b-r-15-13-13--13------------|
 G----13-16b-r-13--------------------------------------------------13---------|
 D-15-----------------------------------------------------------------13h15---|
 A----------------------------------------------------------------------------|
 E----------------------------------------------------------------------------|

NOTE: There are some places in the solo that I marked as pinch harmonics(P.H.).
I don't think what's played is actually a pinch harmonic, but I don't
know what else to call it. It's the sound that's made when you hammer
onto an open string, whatever that's called technically. As usual,
you're on your own with the timing.

Important: The song above is NOT stored on the Chordie server. The original song is hosted at www.azchords.com. Chordie works as a search engine and provides on-the-fly formatting. Chordie does not index songs against artists'/composers' will. To remove this song please click here.

Text color:
Chord color:
Chord grids: 
Font size:    
Page size: 

Bb C Cm Eb Eb/D Fm G# Gm
Rate #1 of 5 versions

Login - add to songbook

SHARE PAGE  



You need to log in to post comments