Guitar Tabs, Chords and Lyrics
Major upgrade!! After one year development the new version of Chordie is now online! Please give feedback.


Amazing  Aerosmith

 
 -----------------------------------------------------------------------------
 -----------------------------------------------------------------------------

Tuning: A (440 hz.)
Note: If you don't know any of the chords used, you'll find them at the end of the tab
Intro: (Am) - (G/A) - (Am) - (G/A)
I kept the righ[Am]t ones out and let the[G/A] wrong ones in
Had an a[C7]ngel of mercy to see me through all my s[F]ins
There we[Fm/Ab]re times in my life when I was g[C/G]oin' insane
[Am/F#]Tryin' to walk through the p[F]ain
When I l[Am]ost my grip and I [G/A]hit the floor
Yeah, I [C7]thought I could leave but couldn't get out the d[F]oor
I was so[Fm/Ab] sick and tired of l[C/G]ivin' a lie
I was wi[Am/F#]shin' that I would d[F]ie
CHORUS
It's a[C]mazi[Em]ng, with the b[F]link of an eye y[Em]ou finally see the [G]light[G7]
It's a[C]mazi[Em]ng when the mo[F]ment arrives that you kn[Em]ow you'll be alrigh[G]t[G7]
It's a[F]mazi[Em]ng and I'm say[D7]in' a prayer for[G7] the desperate hearts to[C]night[C/B]
That [Am]one last shot's a permanent vac[D7]ation
And[F] how high can you fly with broken win[C]gs?[C/B]
[Am]Life's a journey not a dest[D7]ination
[F]And I just can't tell just what tomorrow [G]brings
(Same as VERSE)
You have to learn to crawl before you learn to walk
But I just couldn't listen to all that righteous talk
Well, I was out on the street, just tryin' to survive
Scratchin' to stay alive
CHORUS
CHORDS used:
[Am] [G/A] [C7] [F] [Fm/Ab] [C/G] [Am/F#] [C] [Em]  
 
 e|------0--------X------0-------1--------4-------0-------0------0-------0----|
 b|------1--------3------1-------1--------6-------1-------1------1-------0----|
 g|------2--------4------3-------2--------5-------0-------2------0-------0----|
 D|------2--------5------2-------3--------6-------2-------2------2-------2----|
 A|------0--------0------3-------3--------X-------3-------0------3-------2----|
 E|------X--------X------X-------1--------4-------3-------2------X-------0----|

[G] [G7] [D7] [G7] [C/B]  
 
 e|------3--------1------2-------3--------0------|
 b|------3--------0------1-------3--------1------|
 g|------0--------0------2-------4--------0------|
 D|------0--------0------0-------3--------2------|
 A|------2--------2------X-------5--------2------|
 E|------3--------3------X-------3--------X------|

Well, that's all folks... Any question, mail me; there's no problem, feel free to ask.

Important: The song above is NOT stored on the Chordie server. The original song is hosted at www.azchords.com. Chordie works as a search engine and provides on-the-fly formatting. Chordie does not index songs against artists'/composers' will. To remove this song please click here.

Text color:
Chord color:
Chord grids: 
Font size:    
Page size: 

Am Am/F# C C/B C/G C7 D7 Em F Fm/Ab G G7
Rate #1 of 12 versions

Jango Player

Login - add to songbook

SHARE PAGE  




You need to log in to post comments