Guitar Tabs, Chords and Lyrics
Major upgrade!! After one year development the new version of Chordie is now online! Please give feedback.


Last Child  Aerosmith

Aerosmith
[1976]Written by Steven Tyler/Brad Whitford
Intro: I'm dreaming tonight,etc.
[Dm]  
 
 E-------------------------------------------------
 B--------6--5--6----------------6--5--6-----------
 G-----7-----------7----------7-----------7--------
 D--7-----------------7----7-----------------7-----
 A-------------------------------------------------
 E-------------------------------------------------

[G]  
 
 E--------3-----3----------------3-----3-----------
 B-----3-----5-----3----------3-----5-----3--------
 G-------------------------------------------------
 D--5-----------------5----5-----------------5-----
 A-------------------------------------------------
 E-------------------------------------------------

[E7] [E7] [E#7] [F#7] 
 
 E--------4-----4--1--------------4-----4---5---6--
 B-----3-----5--------3--------3-----5--3---4---5--
 G--4--------------------4--4-----------4---5---6--
 D-------------------------------------------------
 A-------------------------------------------------
 E-------------------------------------------------

E5 (Pattern throughout verse entire song)
 
 E-------------------------------------------------
 B-------------------------------------------------
 G-------------------------------------------------
 D-------------------------------------------2-----
 A---2----2----4----5----4----5----4----2----------
 E-------------------------------------------------

E5 + pattern E5 +
Take me back to South Tallahassee
Down cross the bridge to my sweet sassafrasse[E5]e[+]
Can't stand up on my feet in the city[E5] [+]
Got to get back to the real nitty gritty[E5] [+]
Y[A7]es sir no sir don't come close to my home sweet home
Can't catch no dose from a hot tail poontang
sweetheart sweat who could make silk purse from a J.
Paul Get and his [E5]ear[+] with her face in her beer
H[D]ome sw[A]eet h[E5]ome[+]
Get [E5]out[+] in the field put the mule in the stable[E5] [+]
Ma she's a cookin' put the eats on the table[E5] [+]
Hate's in the city and my love's in the meadow[E5] [+]
Hand's on the plough but my feet's in the ghetto[E5] [+]
St[A7]and up sit down don't do nothin' it ain't no good
when boss man's stuffin' it down their throats for
paper notes and their babies cry while cities lie at
their f[E5]eet[+] when you're rockin the streets
H[D]ome sw[A]eet h[E5]ome[+]
[E5] [+]  
 
 E--------------------------------------------12--
 B--9--10--9--10--9--10--9--10--9--10--9--10------
 G------------------------------------------------
 D------------------------------------------------
 A------------------------------------------------
 E------------------------------------------------
 E--------------------------------------------12--
 B--9-10--9-10--9-10--9-10--9-10--9-10--9-10------
 G------------------------------------------------
 D------------------------------------------------
 A------------------------------------------------
 E------------------------------------------------
 E--12---12-12---12-10------12-10-----------------
 B----------------------12---------12-10----------
 G-----------------------------------------12-9---
 D------------------------------------------------
 A------------------------------------------------
 E------------------------------------------------
 E------------------------------------------------
 B------------------------------------------------
 G-------9--9--9--9-------9--12--9-------9--9-----
 D--12---------------12--------------12--------12-
 A------------------------------------------------
 E------------------------------------------------
 E----------15-------15/17--15------15/17--15/17--
 B------12------15--------------15----------------
 G--9---------------------------------------------
 D------------------------------------------------
 A------------------------------------------------
 E------------------------------------------------

[D] 
 
 E--15/17-------15--------------------14--12------
 B---------15--------17--17--15--17---15--14--14--
 G--------------------------------------------14--
 D------------------------------------------------
 A------------------------------------------------
 E------------------------------------------------
 E--14--12---------14--12---------14--12----------
 B--15--14--14-----15--14--14-----15--14--14------
 G----------14-------------14-------------14------
 D------------------------------------------------
 A------------------------------------------------
 E------------------------------------------------

[A] [E]  
 
 E--14--12------14--------------------------------
 B--15--14--14--15--12------------------12--14-15-
 G----------14---------13--------12--13-----------
 D------------------------14--14------------------
 A------------------------------------------------
 E------------------------------------------------
 E------------------12----------------------------
 B------12--14--15------14--12------12------------
 G--14--------------------------13------13--------
 D------------------------------------------14----
 A------------------------------------------------
 E------------------------------------------------

[D] [A] [E5] [+]  
 
 E--------------------------10--7---4-----2-------
 B-----------------17-------------------------3---
 G------------------------------------------------
 D--12---14--12-----------------------------------
 A------------------------------------------------
 E------------------------------------------------

Ma-ma take me home
[E5] [+] 
 
 E----------4-----4----4-----4--------------------
 B----0-------------------------------------------
 G------------------------------------------------
 D------------------------------------------------
 A------------------------------------------------
 E------------------------------------------------

Sweet home I was the last child
Just a punk in the str[E5]eet[+]s
Repeat and fade

Important: The song above is NOT stored on the Chordie server. The original song is hosted at www.azchords.com. Chordie works as a search engine and provides on-the-fly formatting. Chordie does not index songs against artists'/composers' will. To remove this song please click here.

Text color:
Chord color:
Chord grids: 
Font size:    
Page size: 

A A7 D Dm E E5 E7 F#7 G
Rate #1 of 3 versions

Jango Player

Login - add to songbook

SHARE PAGE  




You need to log in to post comments