Guitar Tabs, Chords and Lyrics
Server problems seems to be fixed. Chordie has been experiencing problems with songs disappearing. These issues now seems to be fixed, but still verifying the fix. If you find anything strange, please email admin@chordie.com.


Affliction   AFI

 
 - -------------------------------------------------------------|
 - -------------------------------------------------------------|
 - -------------------------------------------------------------|
 - -14-14-141414-14-1414-14-14-15-15-151515-15-1515-15-15-12-12-|
 - -0--0--0-0-0--0--0-0--0--0--0--0--0-0-0--0--0-0--0--0--0--0--|
 - -12-12-121212-12-1212-12-12-13-13-131313-13-1313-13-13-10-10-|
 -------------------------------------------------|
 -------------------------------------------------|
 ----------------------0--0--0-0-0--0--0-0--0--0--|
 -121212-12-1212-12-12-11-11-111111-11-1111-11-11-|
 -0-0-0--0--0-0--0--0--x--x--x-x-x--x--x-x--x--x--|
 -101010-10-1010-10-10-9--9--9-9-9--9--9-9--9--9--|

 


 


 [Verse 1] - [00:10] - [00:28]


 

 
 - -------------------------------------------------------------|
 - -------------------------------------------------------------|
 - -------------------------------------------------------------|
 - -14-14-141414-14-1414-14-14-15-15-151515-15-1515-15-15-12-12-|
 - -0--0--0-0-0--0--0-0--0--0--0--0--0-0-0--0--0-0--0--0--0--0--|
 - -12-12-121212-12-1212-12-12-13-13-131313-13-1313-13-13-10-10-|
 --------------------------------------------------------------|
 --------------------------------------------------------------|
 ----------------------0--0--0-0-0--0--0-0--0--0---------------|
 -121212-12-1212-12-12-11-11-111111-11-1111-11-11-14-14-141414-|
 -0-0-0--0--0-0--0--0--x--x--x-x-x--x--x-x--x--x--0--0--0-0-0--|
 -101010-10-1010-10-10-9--9--9-9-9--9--9-9--9--9--12-12-121212-|
 ---------------------------------------------------------------|
 ---------------------------------------------------------------|
 ---------------------------------------------------------------|
 -14-1414-14-14-15-15-151515-15-1515-15-15-12-12-121212-12-1212-|
 -0--0-0--0--0--0--0--0-0-0--0--0-0--0--0--0--0--0-0-0--0--0-0--|
 -12-1212-12-12-13-13-131313-13-1313-13-13-10-10-101010-10-1010-|
 ----------------------------------|
 ----------------------------------|
 -------14-14--14-14--14-14--14-14-|
 -12-12-x--x---x--x---x--x---x--x--|
 -0--0--12-12--12-12--12-12--12-12-|
 -10-10-0--0---0--0---0--0---0--0--|

 


 


 [Bridge 1] - [00:28] - [00:37]


 

 
 - --------------------------------------------------------12--11~-|
 - ------------------------------------------------------10--10----|
 - ----------------------------------------------------------------|
 - ----------------------------------------------------------------|
 - -0-14p12-14h15-15-0-0-14p12-14h15-15-0-14p12-14h15-15-----------|
 - ----------------------------------------------------------------|
 ------------------------------------------------------|
 ------------------------------------------------------|
 ------------------------------------------------------|
 ------------------------------------------------------|
 -0-14p12-14h15-15-0-0-14p12-14h15-15-0-14p12-14h15-15-|
 ------------------------------------------------------|

 


 


 [Cborus 1] - [00:37] - [00:55]


 

 
 - --0--0--0-------------------------1---3----0--0--0---------------|
 - ------------0-0--0---1-1-1-1-1---1-1-3-3-------------0-0--0------|
 - ---7--7------0-0----------------2---4-------7--7------0-0--------|
 - -5--5--5---5--5-5---3---3---3-------------5--5--5---5--5-5-------|
 - -----------------------------------------------------------------|
 - -------------------------------------------------------------1-1-|
 --------------4-4-4-4-4-4-4-4-4-|
 --------------x-x-x-x-x-x-x-x-x-|
 --------------1-1-1-1-1-1-1-1-1-|
 --------------0-0-0-0-0-0-0-0-0-|
 --------------------------------|
 -111-1-11-1-1-------------------|

 


 


 [Fill 1] - [00:55] -


 

 
 - -------------------------------------------------------------|
 - -------------------------------------------------------------|
 - -------------------------------------------------------------|
 - -14-14-141414-14-1414-14-14-15-15-151515-15-1515-15-15-12-12-|
 - -0--0--0-0-0--0--0-0--0--0--0--0--0-0-0--0--0-0--0--0--0--0--|
 - -12-12-121212-12-1212-12-12-13-13-131313-13-1313-13-13-10-10-|
 -------------------------------------------------|
 -------------------------------------------------|
 ----------------------0--0--0-0-0--0--0-0--0--0--|
 -121212-12-1212-12-12-11-11-111111-11-1111-11-11-|
 -0-0-0--0--0-0--0--0--x--x--x-x-x--x--x-x--x--x--|
 -101010-10-1010-10-10-9--9--9-9-9--9--9-9--9--9--|

 


 


 [Verse 2] - [00:55] - [01:23]


 

 
 - -------------------------------------------------------------|
 - -------------------------------------------------------------|
 - -------------------------------------------------------------|
 - -14-14-141414-14-1414-14-14-15-15-151515-15-1515-15-15-12-12-|
 - -0--0--0-0-0--0--0-0--0--0--0--0--0-0-0--0--0-0--0--0--0--0--|
 - -12-12-121212-12-1212-12-12-13-13-131313-13-1313-13-13-10-10-|
 --------------------------------------------------------------|
 --------------------------------------------------------------|
 ----------------------0--0--0-0-0--0--0-0--0--0---------------|
 -121212-12-1212-12-12-11-11-111111-11-1111-11-11-14-14-141414-|
 -0-0-0--0--0-0--0--0--x--x--x-x-x--x--x-x--x--x--0--0--0-0-0--|
 -101010-10-1010-10-10-9--9--9-9-9--9--9-9--9--9--12-12-121212-|
 ---------------------------------------------------------------|
 ---------------------------------------------------------------|
 ---------------------------------------------------------------|
 -14-1414-14-14-15-15-151515-15-1515-15-15-12-12-121212-12-1212-|
 -0--0-0--0--0--0--0--0-0-0--0--0-0--0--0--0--0--0-0-0--0--0-0--|
 -12-1212-12-12-13-13-131313-13-1313-13-13-10-10-101010-10-1010-|
 -------------------------------------------|
 -------------------------------------------|
 -------14-14--16-16-16--17-17-17--19-19-19-|
 -12-12-x--x---x--x--x---x--x--x---x--x--x--|
 -0--0--12-12--14-14-14--15-15-15--17-17-17-|
 -10-10-0--0---0--0---0--0---0--0--0--0--0--|

 


 


 [Bridge 2] - [01:23] - [01:32]


 

 
 - --------------------------------------------------------12--11~-|
 - ------------------------------------------------------10--10----|
 - ----------------------------------------------------------------|
 - ----------------------------------------------------------------|
 - -0-14p12-14h15-15-0-0-14p12-14h15-15-0-14p12-14h15-15-----------|
 - ----------------------------------------------------------------|
 ------------------------------------------------------|
 ------------------------------------------------------|
 ------------------------------------------------------|
 ------------------------------------------------------|
 -0-14p12-14h15-15-0-0-14p12-14h15-15-0-14p12-14h15-15-|
 ------------------------------------------------------|

 


 


 [Cborus 2] - [01:32] - [01:53]


 

 
 - --0--0--0-------------------------1---3----0--0--0---------------|
 - ------------0-0--0---1-1-1-1-1---1-1-3-3-------------0-0--0------|
 - ---7--7------0-0----------------2---4-------7--7------0-0--------|
 - -5--5--5---5--5-5---3---3---3-------------5--5--5---5--5-5-------|
 - -----------------------------------------------------------------|
 - -------------------------------------------------------------1-1-|
 --------------4-4-4-4-4-4-4-4-4-4-10-10-10-10-10-10-10-10-12-12-12-|
 --------------x-x-x-x-x-x-x-x-x-x-x--x--x--x--x--x--x--x--x--x--x--|
 --------------1-1-1-1-1-1-1-1-1-1-7--7--7--7--7--7--7--7--9--9--9--|
 --------------0-0-0-0-0-0-0-0-0-0-0--0--0--0--0--0--0--0--0--0--0--|
 -------------------------------------------------------------------|
 -111-1-11-1-1------------------------------------------------------|
 -12-12-12-12-12-|
 -x--x--x--x--x--|
 -9--9--9--9--9--|
 -0--0--0--0--0--|
 ----------------|
 ----------------|

 


 


 [Interlude] - [01:53] - [03:33]


 

 
 - ----------------------------------------------------------------|
 - ----------------------------------------------------------------|
 - ----------------------------------------------------------------|
 - ----------------------------------------------------------------|
 - ----------------------------------------------------------------|
 - -5~-5-7-8-7-5-7-5\1~-1-1p0-0-0-0--5~-5-7-8-7-5-7-5\1~-1-1p0-0-0-|
 -------------------------------------------------------------|
 -------------------------------------------------------------|
 -------------------------------------------------------------|
 -------------------------------------------------------------|
 -------------------------------------------------------------|
 -0--5~-5-7-8-7-5-7-5\1~-1-1p0-0-0-0--5~-7-8-7-5-7-5\1~-1-1p0-|
 -4-4-4-4-----------------------------4-4-4/5\4-4---------------|
 -x-x-x-x-----------------------------x-x-x-x-x-x---------------|
 -1-1-1-1-----------------------------1-1-1/2\1-1---------------|
 -0-0-0-0-x5~-------------------------0-0-0-0-0-0---------------|
 ---------x5~---------------------------------------------------|
 ---------x3~-5~-7-8-7-5-7-5\1~-1-1p0------------~-5~-7-8-7-5-7-|
 --------------------------------------------------0----------|
 ---------------------------------------------------1---------|
 -----------------------------2~-2-2p0-5~-5-5-5------2(p0)----|
 -----------------------------2~-2-2p0-5~-5-5-5-4~---------2~-|
 -----------------------------0~-0-0~--3~-3-3-3-4~---------2~-|
 -5\1~-1-1p0-0-0-0-0-0-0-0-0--------------------2~---------0~-|
 -------------------0----------|
 --------------------1---------|
 -------2~-2-2-2------2(p0)----|
 -2-2-2-2~-2-2-2-4~---------5~-|
 -2-2-2-0~-0-0-0-4~---------5~-|
 -0-0-0----------2~---------3~-|

 


 


 [Fill 2] - [03:00] - [03:07]


 

 
 - -0~----------------------------------------------------------------|
 - -0~----------------------------------------------------------------|
 - -1~----------------------------------------------------------------|
 - -2~-15\------------------------------------------------------------|
 - -2~-15\--0-14p12-14h15-15-0-0-14p12-14h15-15-0-14p12-14h15-15-0-17-|
 - -0~-15\------------------------------------------------------------|
 ----------------|
 ----------------|
 ----------------|
 ----------------|
 -0-0-19-0-0-22~-|
 ----------------|

 


 


 [Cborus 3] - [03:07] - [03:27]


 

 
 - -8--8-8-8-8-8-8-8-8-8-8-8-8-8-8--3-33333333333333-1-11111111111111-|
 - -8--8-8-8-8-8-8-8-8-8-8-8-8-8-8--3-33333333333333-1-11111111111111-|
 - -9--9-9-9-9-9-9-9-9-9-9-9-9-9-9--4-44444444444444-2-22222222222222-|
 - -10-1010101010101010101010101010-5-55555555555555-3-33333333333333-|
 - -10-1010101010101010101010101010-5-55555555555555-3-33333333333333-|
 - -8--8-8-8-8-8-8-8-8-8-8-8-8-8-8--3-33333333333333-1-11111111111111-|
 -5-5-5-5-5-5-5-5-7-7-7-7-7-7-7-7-8--8-8-8-8-8-8-8-8-8-8-8-8-8-8--|
 -x-x-x-x-x-x-x-x-x-x-x-x-x-x-x-x-8--8-8-8-8-8-8-8-8-8-8-8-8-8-8--|
 -2-2-2-2-2-2-2-2-4-4-4-4-4-4-4-4-9--9-9-9-9-9-9-9-9-9-9-9-9-9-9--|
 -0-0-0-0-0-0-0-0-0-0-0-0-0-0-0-0-10-1010101010101010101010101010-|
 ---------------------------------10-1010101010101010101010101010-|
 ---------------------------------8--8-8-8-8-8-8-8-8-8-8-8-8-8-8--|
 -3-33333333333333------------------4-4-4-4-4-4-4-4-4-4-4-4-4-4-4-4-|
 -3-33333333333333------------------x-x-x-x-x-x-x-x-x-x-x-x-x-x-x-x-|
 -4-44444444444444------------------1-1-1-1-1-1-1-1-1-1-1-1-1-1-1-1-|
 -5-55555555555555------------------0-0-0-0-0-0-0-0-0-0-0-0-0-0-0-0-|
 -5-55555555555555--------------------------------------------------|
 -3-33333333333333-1-1-111-1-11-1-1---------------------------------|
 -10-10-10-10-10-10-10-10/12-12-|
 -x--x--x--x--x--x--x--x--x--x--|
 -7--7--7--7--7--7--7--7-/9--9--|
 -0--0--0--0--0--0--0--0--0--0--|
 -------------------------------|
 -------------------------------|

 


 


 [Outro] - [03:27] - [03:37]


 

 
 - --------------------------------------------------------12--11~-|
 - ------------------------------------------------------10--10----|
 - ----------------------------------------------------------------|
 - ----------------------------------------------------------------|
 - -0-14p12-14h15-15-0-0-14p12-14h15-15-0-14p12-14h15-15-----------|
 - ----------------------------------------------------------------|
 ------------------------------------------------------12-12-12-|
 ------------------------------------------------------10-10-10-|
 ---------------------------------------------------------------|
 ---------------------------------------------------------------|
 -0-14p12-14h15-15-0-0-14p12-14h15-15-0-14p12-14h15-15----------|
 ---------------------------------------------------------------|
 -12-11-11-11-----|
 -10-10-10-10-----|
 -----------------|
 -------------7\--|
 -------------7\--|
 -------------5\--|


Important: The song above is NOT stored on the Chordie server. The original song is hosted at www.azchords.com. Chordie works as a search engine and provides on-the-fly formatting. Chordie does not index songs against artists'/composers' will. To remove this song please click here.

This song is displayed as text-only. Transposing and tuning is only available for chordpro-songs.
Rate #1 of 4 versions

Jango Player

Login - add to songbook

SHARE PAGE  




You need to log in to post comments