Guitar Tabs, Chords and Lyrics
Major upgrade!! After one year development the new version of Chordie is now online! Please give feedback.


I Still Love You Julie  Against Me!

Note* I was tabbing this with my acoustic while missing my low E string... I was jamming
sink florida sink, also by against me! and it snapped *cries*... so I will re submit this
tab when I get it more precise, but I know the intro and fills are correct.
Intro:
Fig.1
Root: B A E
 
 e----------------|----------------|---------------|
 b----------------|----------------|---------------|
 g----------------|----------------|--------4-4----|
 d--------4-4-----|--------4-4-----|------5-----55-|
 a--2-2-5-----5-5-|--0-0-5-----5-5-|--7-7----------|
 e----------------|----------------|---------------|

(2x) (2x) (2X)
[F] [E]  
 
 e----------------|---------------|
 b----------------|---------------|
 g--------6-6-----|-------6-6-----|
 d------7-----7-7-|-----7-----7---|
 a--9-9-----------|-7-7-----------|
 e----------------|---------------|

Last n[B]ight a room full dr[A]unk
sang along to the songs I never h[E]ad the courage to write
[F]given the chance I'd s[E]tay in this chorus forever[B]
where everything ugly in this w[A]orld is sadly beautiful
in our d[E]esperate memorie[F]s[E]
no we're no[B]t gonna c[A]all anyone on their sh*t tonight
(start playing Fig.2 during "tonight")
Fig.2
 
 e----------------|
 b----------------|
 g----------------|
 d--------4-4-----|2x
 a--2-2-5-----5-5-|
 e----------------|

ev[B]en though the half of you won'[A]t even smile
the next time we pass on the street
(start playing play Fig. 2 during after "pass")
B A * next notes are hard to hear sounds like A or B*
maybe somehow this scam will still save us all...
Chorus:
*hit A and/or B repeatedly and harmonize vocally Against me is notorious for their
harmonizing and jamming on one or two notes*
still save us all!
Bridge: Play Fig.1 with the second guitar hitting the root notes
*second verse play Fig.1 I will put the root notes where the changes happen*
Verse 2:
And I [B]saw you dancing at a punk rock sho[A]w
and for a moment we walked streets
that eve[E]ryone else had given up to 4 a.[F]m.[E]
cursed p[B]romises and spray paint marking everywhe[A]re we went
and every dire[E]ction only going as far as we l[F]et i[E]t
there's so ma[B]ny [A]things we tried to do truthfully
(play Fig.2 during "truthfully")
(Fig 2 d[B]uring "apart")[A]
B A *again the random hitting of what sound like A's and B's*
maybe somehow this scam will still save us all...
chorus: same as first:
stilll save us all!
Chords used:
(then play)
[B] [A] [E] [F]  
 
 e---|---|---|----|-|
 b---|---|---|----|-|
 g---|---|-9-|-11-|-|
 d-9-|-5-|-9-|-11-|-|
 a-9-|-5-|-7-|-9--|-|
 e-7-|-7-|---|----|-|


Important: The song above is NOT stored on the Chordie server. The original song is hosted at www.azchords.com. Chordie works as a search engine and provides on-the-fly formatting. Chordie does not index songs against artists'/composers' will. To remove this song please click here.

Text color:
Chord color:
Chord grids: 
Font size:    
Page size: 

A B E F
Rate #1 of 3 versions

Login - add to songbook

SHARE PAGE  




You need to log in to post comments