Guitar Tabs, Chords and Lyrics
Major upgrade!! After one year development the new version of Chordie is now online! Please give feedback.


Miami  Against Me!

 
 -------------------------------------------------------------------------------
 -------------------------------------------------------------------------------

Tuning: Standard EADGBe
Intro:
Am E F Am (strum slowly then faster
up to high Am)
 
 e|--0--0~--------0------------1---------------0----------------x------------|
 B|--1--1~--------0------------1---------------1--------/////---13-----------|
 G|--2--2~--------1------------2---------------2--------/////---14-----------|
 D|--2--2~--2--0--2------------3---------------2--------/////---14-----------|
 A|--0--0~--------2------------3---------------0----------------0------------|
 E|--x--x---------0----0-0-0---1-----3---1-----x----------------x------------|

Verse 1:
[Am]We charge into danger,[G] No guarantees or safe places
[F]No one can be trusted, eve[E]ryone is a suspect
[Am]All the money's worthless, The[G] talent is trite and exaggerated
T[F]he food is turning and the w[E]ater's f**king poison
And i[Am]t's rotting your teeth right out of your head, s[G]ight and hearing are quickly faded
Your [F]gut's expanding, your hairline's receding, The [E]sores are opening and the cancer's spreading
And [Am]the antibiotics aren't working, All the d[G]rugs are just strangely sobering
And [F]the skeletons in your closet have opened the [E]door and they've started talking
Chorus:
Just lik[Am]e Miami! (Miami!) f**king Miami (Miami!)
Sharks [G]circling for the feeding
All h[F]ope has been abandoned, like ballots dr[E]ifting into the ocean.
Hey!
Verse 2:
[Am]They're in your room while you're sl[G]eeping, They're in your car behind the seat waiting
All the rif[F]le sights are on the back of your head
They're slipping it[E] in your drink when you're not looking.
And they'r[Am]e selling it to you as art,[G] It's every other word in movies and songs.
All the pu[F]blic is buying, it's business as usual, and the[E] business is capitalizing
on your [Am]fear, your greed, your perversions and vices
They [G]say you're guilty, they've got the evidence to prove it
The [F]mistakes are obvious, the faults are glaring,
E N.C.
The plane is on fire, the f**king SHIP IS SINKING!
And you're [Am]swept away in a hurricane, You're [G]buried in the rubble of an earthquake
It's t[F]erminal, inoperable, they're amputating!
Massive haemor[E]rhaging, major f**king complications!
Chorus x 2
Miami![Am] [(End)]

Important: The song above is NOT stored on the Chordie server. The original song is hosted at www.azchords.com. Chordie works as a search engine and provides on-the-fly formatting. Chordie does not index songs against artists'/composers' will. To remove this song please click here.

Text color:
Chord color:
Chord grids: 
Font size:    
Page size: 

Am E F G
Rate #1 of 4 versions

Jango Player

Login - add to songbook

SHARE PAGE  



You need to log in to post comments