Guitar Tabs, Chords and Lyrics
Login is temporarily disabled for some users. Do not panic. Will be back in an hour or two. DO NOT REREGISTER!!


Pints of Guinness Make You Strong  Against Me!

Against Me! - Pints Of Guinness Make You Strong
Tuning: Standard
Guitar 1: Intro and Verse
[Am] [C] [Am] [G]  
 
 e|--0---0---0---3--|
 B|--1---1---1---3--|
 G|--2---0---2---0--|
 D|--2---2---2---0--|
 A|--0---3---0---2--|
 E|--x---x---x---3--|

Guitar 2: Intro
[C] [Am] [G]  
 
 e|---------------------------------------|
 B|---------------------------------------|
 G|---------------------------------------|
 D|---------------------------------------|
 A|----0-2-3---3-3-2-0-----0-2---22--3-2--|
 E|----------3---------0-------3---3------|

Chorus (Other guitar playing distorted power chords)
[F] [G] [F] [Am] [G]  
 
 e|-1-|----3----1--0--3-----|
 B|-1-|----3----1--1--3-----|
 G|-2-|----0----2--2--0-----|
 D|-3-|----0----3--2--0-----|
 A|-3-|----2----3--0--2-----|
 E|-1-|----3----1--X--3-----|

[F] [Am] [G] [F] [Am] [G] [Am]  
 
 e|--1---0---3------|--1---0---3------|-0-|
 B|--1---1---3------|--1---1---3------|-1-|
 G|--2---2---0------|--2---2---0------|-2-|
 D|--3---2---0------|--3---2---0------|-2-|
 A|--3---0---2------|--3---0---2------|-0-|
 E|--1---x---3------|--1---x---3------|-x-|

[E] [D] [A]  
 
 e|--0---0---5---5--|-5-|
 B|--0---0---7---7--|-5-|
 G|--1---1---7---7--|-6-|
 D|--2---2---7---7--|-7-|
 A|--2---2---5---5--|-7-|
 E|--0---0----------|-5-|

Verse 2
[Am] [C] [G] [F] [F] [Am] [G] [F] [F] [Am] [G] [F]  
 
 e|--0---0---3---1--|--1---0---3---1--|--1---0---3---1--|
 B|--1---1---3---1--|--1---1---3---1--|--1---1---3---1--|
 G|--2---0---0---2--|--2---2---0---2--|--2---2---0---2--|
 D|--2---2---0---3--|--3---2---0---3--|--3---2---0---3--|
 A|--0---3---2---3--|--3---2---0---3--|--3---2---0---3--|
 E|--x---x---3---1--|--1---x---3---1--|--1---x---3---1--|

[F] [Am] [G] [F]  
 
 e|--1---0---3---1--|
 B|--1---0---3---1--|
 G|--2---1---0---2--|(Strum each chord once)
 D|--3---2---0---3--|
 A|--3---2---2---3--|
 E|--1---x---3---1--|

Chorus 2
[F] [Am] [G]  
 
 e|--1---0---3------|
 B|--1---1---3------|
 G|--2---2---0------|
 D|--3---2---0------|
 A|--3---0---2------|
 E|--1---x---3------|

Outro (Strum each chord once)
[F] [Am] [G]  
 
 e|--1---0---3------|
 B|--1---1---3------|
 G|--2---2---0------|
 D|--3---2---0------|
 A|--3---0---2------|
 E|--1---x---3------|

===============================================================================
[Am] [C] [Am] [G]  
[Am]Evelyn sits by the elevator doors
It's been [C]37 years since James died on St. Patrick's [Am]day in 1964
She [G]could not hold it against him
There were [Am]times there was nothing she could do but [C]lie in bed all day
Beside a picture of them [Am]together, a picture of [G]better days [F]
And just like James, Iā??ll be drinking Irish tonight
And the [G]memory of his last work week will be gone forever
[F]Evelyn Iā??m no[Am]t coming home [G]tonight
If we're [F]never together, if I'm [Am]never back again
Well [G]I swear to god that I'll love you forever
[F]Evelyn Iā??m no[Am]t coming home [G]tonight
In [Am]all the years that went by she said she'd [C]always love him
And from the [G]day that he died she never loved [F]again
In his [F]wallet she kept in her [Am]nightstand
An A.A. card and a [G]lock of red [F]hair
She kept secrets of [F]pride locked so tight in her [Am]heart
It killed a part of [G]her before the rest was [F]gone.
She said, "if [F]I would have known just how [Am]things would have ended up
I [G]just would have let myself [F]die."
And [F]just like James, Iā??ll be drinkin[Am]g Irish tonight
And the [G]memory of his last work week will be gone forever
[F]Evelyn Iā??m no[Am]t coming home [G]tonight
If we're [F]never together, if I'm [Am]never back again
Well [G]I swear to god that I'll love you forever
[F]Evelyn Iā??m no[Am]t coming home [G]tonight
[F] [Am] [G]  
===============================================================================

Important: The song above is NOT stored on the Chordie server. The original song is hosted at www.azchords.com. Chordie works as a search engine and provides on-the-fly formatting. Chordie does not index songs against artists'/composers' will. To remove this song please click here.

Text color:
Chord color:
Chord grids: 
Font size:    
Page size: 

A Am C D E F G
Rate #1 of 3 versions

Login - add to songbook

SHARE PAGE  



You need to log in to post comments