Guitar Tabs, Chords and Lyrics
Major upgrade!! After one year development the new version of Chordie is now online! Please give feedback.


Bloodstains   Agent Orange

 
 ----------------------------------------------------------------------------

 


 BLOODSTAINS ? Agent Orange


 

 
 ----------------------------------------------------------------------------

 


 


 ()=4 times


 []=2 times


 \=slide down


 /=slide up


 h=hammer-on


 p=pull-off


 


 Intro:


 

 
 e|------------------|
 B|------------------|
 G|------------------|
 D|-4-4-4-4-4-4\2-5--|
 A|-4-4-4-4-4-4\2-5--|
 E|-2-2-2-2-2-2\0-3--| 

 


 pm\_________/


 


 Verse:


 

 
 e|---------------------------------------------------------------------|
 B|---------------------------------------------------------------------|
 G|---------------------------------------------------------------------|
 D|-(4-4-4-4-4-4\2-5)--2-2-2-2-2-2\3--2-2-2-2-2\5--[4-4-4-4-4-4\2-5]----|
 A|-(4-4-4-4-4-4\2-5)--2-2-2-2-2-2\3--2-2-2-2-2\5--[4-4-4-4-4-4\2-5]----|
 E|-(2-2-2-2-2-2\0-3)--0-0-0-0-0-0\1--0-0-0-0-0\3--[2-2-2-2-2-2\0-3]----| 

 


 pm \_________/ \_________/ \_________/ \_________/


 


 Chorus:


 

 
 e|-----------------------------------------------------|
 B|-----------------------------------------------------|
 G|-----------------------------------------------------|
 D|-[2-2~]-[4-4-4-4-4-4\2-5]--[2-2~]-4-4-4-4-4-4\2-5-4--|
 A|-[2-2~]-[4-4-4-4-4-4\2-5]--[2-2~]-4-4-4-4-4-4\2-5-4--|
 E|-[0-0~]-[2-2-2-2-2-2\0-3]--[0-0~]-2-2-2-2-2-2\0-3-2--| 

 


 


 Solo:


 

 
 e|-----------------------------------------------------|
 B|-----------------------------------------------------|
 G|-----------------------------------------------------|
 D|-----------------------------------------------------|
 A|-----1-2-4-2-4-2-1-2-1-2-4-4-4-4-2-1-1-1-1-2-4-4-5---|
 E|-2-2-2-2-3-------------------------------------------|
 e|----------------------------------------|
 B|----------------------------------------|
 G|----------------------------------------|
 D|-------3-0-3h4-6p4-3p0-3p0--------------|
 A|---------------------------5-5-4-5-5-4--|
 E|----------------------------------------|
 e|---------------------------------------------------------|
 B|---------------------------------------------------------|
 G|----------3-4-3-4/6-6-4-3-4/6-4-3-4/6-4-3-4/6-4-3-4-3h4p3|
 D|4-0-3-0-3-4----------------------------------------------|
 A|---------------------------------------------------------|
 E|---------------------------------------------------------|
 e|---------------------------------------|
 B|---------------------------------------|
 G|--3-4-3--------------------------------|
 D|--4-----------------3-0-3-4-3----------|
 A|-------5-5-5-5-4-5---------------------|
 E|---------------------------------------|


Important: The song above is NOT stored on the Chordie server. The original song is hosted at www.azchords.com. Chordie works as a search engine and provides on-the-fly formatting. Chordie does not index songs against artists'/composers' will. To remove this song please click here.

This song is displayed as text-only. Transposing and tuning is only available for chordpro-songs.
Rate #1 of 1 versions

Jango Player

Login - add to songbook

SHARE PAGE  




You need to log in to post comments