Guitar Tabs, Chords and Lyrics
Server problems seems to be fixed. Chordie has been experiencing problems with songs disappearing. These issues now seems to be fixed, but still verifying the fix. If you find anything strange, please email admin@chordie.com.


Genetic Design for Dying   Aiden

 
 -------------------------------------------------------------------------|
 -------------------------------------------------------------------------|
 -6-666666666666666-------------------2-222222222222222-4-444444444444444-|
 -6-666666666666666-2-222222222222222-2-222222222222222-4-444444444444444-| x2
 -4-444444444444444-2-222222222222222-0-000000000000000-2-222222222222222-|
 -------------------2-222222222222222-------------------------------------|

 


 ............... ............... ............... ...............


 


 On the second time through,start to release palm muting on the last chords before going to the chorus


 


 Guitar 2


 


 

 
 ------- --------------------------------------------------------------------|
 ------- ----------9-9---------------9-9-------------9-9-----12-12----9-9----|
 -11---- ------9-------9-9-------9------9-9-------9------9-9------9-9----9-9-|
 ----9-- 11-11--11---------11-11--11--------11-11--11------------------------|
 ------- --------------------------------------------------------------------|
 ------- --------------------------------------------------------------------|

 


 . . .. . . . . . . . .


 


 Play guitar through once,then play second part again


 


 Chorus


 part 1


 Both guitars


 


 

 
 -----------------------------------------------------|
 -----------------------------------------------------|
 --------------666666666666-222222222222-444444444444-|

 


 -222222222222-666666666666-222222222222-444444444444-|


 -222222222222-444444444444-000000000000-222222222222-|


 

 
 -222222222222----------------------------------------|

 


 


 Then:


 part 2


 Guitar 1


 


 

 
 --------------------------------------|
 --------------------------------------|
 -------------------22222222-44444444--|
 -22222222-11111111-22222222-44444444--| x2
 -22222222-11111111-00000000-22222222--|
 -22222222-11111111--------------------|

 


 


 Guitar 2


 


 

 
 --------------------------------------|
 --------------------------------------|
 -99999999-88888888-22222222-44444444--|
 -99999999-88888888-22222222-44444444--| x2
 -77777777-66666666-00000000-22222222--|
 --------------------------------------|

 


 


 Then play the verse again


 


 Then chorus with this adjustment for the 2nd and 3rd times:


 


 with one change,instead of where both guitars play the same thing in part 1 of the


 2 plays:


 


 

 
 ---------------------------------------------|
 ---------------------------------------------|
 -16-16-16-16-14-14-13-13-13-13-11-9----------|
 -x--x--x--x--x--x--x--x--x--x--x--x----------| x3
 -14-14-14-14-12-12-11-11-11-11-9--7----------|
 ---------------------------------------------| |this section x2 then
 ---------------------------------------------| |part 2 of verse again
 ---------------------------------------------|
 -11-11-11-13-9-11-11-11-13-11----------------|
 -x--x--x--x--x-x--x--x--x--x-----------------|
 -9--9--9--11-7-9--9--9--11-9-----------------|
 ---------------------------------------------|

 


 


 Then:


 


 Bridge


 part 1


 Guitar 1 only


 


 

 
 ----------------------------------|
 ----------------------------------|
 ----------------------------------|
 -9-9-9-9-7-7-7-7-6-6-6-6-6-6-6-6--| x4
 ----------------------------------|
 ----------------------------------|

 


 . . . . . . . . . . . . . . . .


 


 part 2


 Guitar 1


 


 

 
 ----------------------------------|
 ----------------------------------|
 ----------------------------------|
 -9-9-9-9-7-7-7-7-6-6-6-6-6-6-6-6--| x4
 -7-7-7-7-7-7-7-7-7-7-7-7-7-7-7-7--|
 ----------------------------------|

 


 . . . . . . . . . . . . . . . .


 


 

 
 -------------------------------------------------|
 -------------------------------------------------|
 -6-6-6-6-6-6-4-4-4-4-4-4-2-2-2-2-2-2-4-4-4-4-4-4-|
 -6-6-6-6-6-6-4-4-4-4-4-4-2-2-2-2-2-2-4-4-4-4-4-4-| x2 listen carefully for
 -4-4-4-4-4-4-2-2-2-2-2-2-0-0-0-0-0-0-2-2-2-2-2-2-| timing
 -------------------------------------------------|

 


 


 Guitar 2


 


 

 
 ---------------------------------------------------------------------|
 ---------------------------------------------------------------------|
 ---------------------------------------------------------------------|
 ---------------------------------------------------------------------|
 -4444444444444444-2222222222222222-0000000000000000------------------|
 ----------------------------------------------------6666666666666666-|

 


 ................ ................ ................ ................


 listen to song carefully for timing,this is played v. quietly


 


 

 
 ----------------------------|
 ----------------------------|
 -9-11-13-13-11-9-9-11-13-11-|
 -x-x--x--x--x--x-x-x--x--x--| x4
 -7-9--11-11-9--7-7-9--11-9--|
 ----------------------------|


Important: The song above is NOT stored on the Chordie server. The original song is hosted at www.azchords.com. Chordie works as a search engine and provides on-the-fly formatting. Chordie does not index songs against artists'/composers' will. To remove this song please click here.

This song is displayed as text-only. Transposing and tuning is only available for chordpro-songs.
Rate #1 of 2 versions

Login - add to songbook

SHARE PAGE  




You need to log in to post comments