Guitar Tabs, Chords and Lyrics
Server problems seems to be fixed. Chordie has been experiencing problems with songs disappearing. These issues now seems to be fixed, but still verifying the fix. If you find anything strange, please email admin@chordie.com.


She Will Love You   Aiden

 
 [--------------------------------]
 [--------------------------------]
 [--------------------------------]

 


 [33333333333333358888888888888888] 


 [33333333333333358888888888888888] 


 [11111111111111136666666666666666] 


 


 Intro hook (Comes in after intro is played once)


 


 

 
 [----------------]
 [----10--10-11-10]
 [7-10--10--------]
 [----------------]
 [----------------]
 [----------------]

 


 Repeat 4 times


 


 Verse


 


 

 
 [---------------]
 [---------------]
 [---------------]
 [3-3-3-3-8-8-8-8]
 [3-3-3-3-8-8-8-8]
 [1-1-1-1-6-6-6-6]

 


 repeat 9 times, strum double speed on the 5th, 8th and 9th repeats.


 


 Chorus


 


 Back to intro chords-


 


 

 
 [--------------------------------]
 [--------------------------------]
 [--------------------------------]

 


 [33333333333333358888888888888888] 


 [33333333333333358888888888888888] 


 [11111111111111136666666666666666] 


 repeat twice


 


 After chorus bit


 


 

 
 [----------------]
 [----------------]
 [----------------]
 [3-------8-------]
 [3-------8-------]
 [1-------6-------]

 


 just once


 


 [13-12-8-8] 


 

 
 [---------]
 [---------]
 [---------]
 [---------]
 [---------]

 


 repeat 4 times


 


 

 
 [-----------------------------------------------]
 [-----------------------------------------------]
 [-----------------------------------------------]
 [12-12-12-12-12-12-12-12-15-15-14-14-10-10-10-10]
 [12-12-12-12-12-12-12-12-15-15-14-14-10-10-10-10]
 [10-10-10-10-10-10-10-10-13-13-12-12-8--8--8--8-]

 


 Palm mute this part and repeat twice


 


 Solo


 pmpm


 

 
 [1-0--1-0-1-0-101010------------------------------------------------------]
 [----1---1---1------------------------------------------------------------]
 [-------------------3-2-0-----3-2-0---------------------------------------]
 [------------------------3-232-----3-23235-3-2323235-3-2323230000338787878]
 [-------------------------------------------------------------------------]
 [-------------------------------------------------------------------------]
 [-------------2-2-1-1-3-3-6-6-10-10-8--8--6-6-6-6]
 [-------------3-3-1-1-3-3-6-6-10-10-8--8--6-6-6-6]
 [-------------2-2-2-2-4-4-7-7-11-11-9--9--7-7-7-7]
 [878788-10-10-0-0-3-3-5-5-8-8-12-12-10-10-8-8-8-8]
 [-------------0-0-3-3-5-5-8-8-12-12-10-10-8-8-8-8]
 [-----------------1-1-3-3-6-6-10-10-8--8--6-6-6-6]

 


 


 Final chorus


 


 

 
 [--------------------------------]
 [--------------------------------]
 [--------------------------------]


Important: The song above is NOT stored on the Chordie server. The original song is hosted at www.azchords.com. Chordie works as a search engine and provides on-the-fly formatting. Chordie does not index songs against artists'/composers' will. To remove this song please click here.

This song is displayed as text-only. Transposing and tuning is only available for chordpro-songs.
Rate #1 of 3 versions

Login - add to songbook

SHARE PAGE  



You need to log in to post comments