Guitar Tabs, Chords and Lyrics
Update 25:10. 13:00. Site is back up running again. Songbooks are recovered. Woring on getting search back up..


Tak zwyczajnie  Akurat

[intro] 
 
 e|----------------------------------------------------------------|
 B|----------------------------------------------------------------|
 G|----------------------------------------------------------------|
 D|----------------------------------------------------------------|
 A|----10-----10----7-------10-----10----7-------10-----10----7----|
 E|--8-----12-----5-------8-----12-----5-------8-----12-----5------|

[C] [Em] [Am]  
[C] [Em] [Am]  
[C] [Em] [Am]  
[C] [Em] [Am]  
[verse 1] 
Tak zwy[C]czajnie [Em]mog┼?em[Am] zgubi─? si─?
Tak nor[C]malnie [Em]mog┼?em[Am] straci─? sens
Ale si─? zn[C]alaz┼?em[Em], w sam[Am]─? por─?
Odna[C]laz┼?em[Em] siebie[Am] zn├│w
[verse 2] 
Tak zwy[C]czajnie [Em]mog┼?em[Am] traci─? czas
Tak nor[C]malnie [Em]mog┼?em[Am] zdradzi─? nas
Ale Ci─? spo[C]tka┼?em[Em], w sam[Am]─? por─?
Odna[C]laz┼?em[Em] Ciebie[Am] tu
[cborus] 
[G] Nie[Am]wyobra[F]┼╝alna si┼?a to by┼?a
[G] Nie[Am]wyobra[F]┼╝alna
[G] Nie[Am]wyobra[F]┼╝alna si┼?a to by┼?a
[G] Nie[Am]wyobra[F]┼╝alna
[C] [Em] [Am]  
[C] [Em] [Am]  
[verse 3] 
Tak zwy[C]czajnie [Em]mog┼?em[Am] ton─?─? gdzie┼?
Tak nor[C]malnie [Em]zosta─?[Am] gdzie┼? na dnie
Ale si─? [C]uda┼?o[Em], w sam[Am]─? por─?
Wyp┼?[C]yn─?┼?[Em]em jeszc[Am]ze raz
[verse 4] 
Tak nor[C]malnie [Em]mog┼?em[Am] uciec st─?d
Tak zwy[C]czajnie [Em]mog┼?em[Am] zmieni─? lot
Ale Ci─? zn[C]alaz┼?em[Em], w sam[Am]─? por─?
Odna[C]laz┼?em[Em] siebie[Am] zn├│w
[cborus] 
[G] Nie[Am]wyobra[F]┼╝alna si┼?a to by┼?a
[G] Nie[Am]wyobra[F]┼╝alna
[G] Nie[Am]wyobra[F]┼╝alna si┼?a to by┼?a
[G] Nie[Am]wyobra[F]┼╝alna
[G] Nie[Am]wyobra[F]┼╝alna si┼?a to by┼?a
[G] Nie[Am]wyobra[F]┼╝alna
[G] Nie[Am]wyobra[F]┼╝alna si┼?a to by┼?a
[G] Nie[Am]wyobra[F]┼╝alna
[outro] 
[G] [Am] [F] [G] [Am] [F]  
 
 e|--------|--------|-------|--------|--------|-----------|
 B|--------|--------|-------|--------|--------|-----------|
 G|----4---|----5---|----2--|----4---|----5---|----2-2/14-|
 D|--------|--------|-------|--------|--------|-----------|
 A|--------|--------|-------|--------|--------|-----------|
 E|--3---3-|--5---5-|--1----|--3---3-|--5---5-|--1--------|

[G] [Am] [F] [G] [Am] [F]  
 
 e|--------|--------|-------|--------|--------|--------|
 B|--------|--------|-------|--------|--------|--------|
 G|----4---|----5---|----2--|----4---|----5---|----2---|
 D|--------|--------|-------|--------|--------|--------|
 A|--------|--------|-------|--------|--------|--------|
 E|--3---3-|--5---5-|--1----|--3---3-|--5---5-|--1-----|


Important: The song above is NOT stored on the Chordie server. The original song is hosted at www.azchords.com. Chordie works as a search engine and provides on-the-fly formatting. Chordie does not index songs against artists'/composers' will. To remove this song please click here.

Text color:
Chord color:
Chord grids: 
Font size:    
Page size: 

Am C Em F G
Rate #1 of 1 versions

Jango Player

Login - add to songbook

SHARE PAGE  



You need to log in to post comments