Guitar Tabs, Chords and Lyrics
Server problems seems to be fixed. Chordie has been experiencing problems with songs disappearing. These issues now seems to be fixed, but still verifying the fix. If you find anything strange, please email admin@chordie.com.


Alchemy Sounded Good at the Time   Alesana

 
 |--13-13-13-13-13-13-13-14-14-14-14-14-14-14-12-12-12-12-12-12-12--|
 |------------------------------------------------------------------|
 |------------------------------------------------------------------|
 |------------------------------------------------------------------| [x4]
 |------------------------------------------------------------------|
 |------------------------------------------------------------------|
 |------------|
 |------------|
 |--8-8-8-8---|
 |--8-8-8-8---|
 |--6-6-6-6---|
 |------------|

 


 


 MY DARLING QUEEN...


 

 
 |------------------------------------------------------------------| /
 |------------------------------------------------------------------| /
 |------------------------------------------------------------------| /
 |------------------------------------------------------------8-----| /
 |--0-8-9-0-6-8-0-8-9-0-6-8-0-6-8---0-8-9-0-6-8-0-8-9-0-6-8-0---9---| /
 |------------------------------------------------------------------| /

 


 / [x2]


 

 
 |------------------------------------------------------------------| /
 |------------------------------------------------------------------| /
 |------------------------------------------------------------------| /
 |------------------------------------------------------------8-----| /
 |--0-6-8-0-4-6-0-6-8-0-4-6-0-4-6---0-6-8-0-4-6-0-6-8-0-4-6-0---9---| /
 |------------------------------------------------------------------| /

 


 


 VERSE


 WIND CRIES OUT....


 

 
 |------------------------------------------------------------------|
 |------------------------------------------------------------------|
 |------------------------------------------------------------------|
 |------------------------------------------------------------8-----|
 |--0-8-9-0-6-8-0-8-9-0-6-8-0-6-8---0-8-9-0-6-8-0-8-9-0-6-8-0---9---|
 |------------------------------------------------------------------|
 |------------------------------------------------------------------|
 |------------------------------------------------------------------|
 |------------------------------------------------------------------|
 |------------------------------------------------------------8-----|
 |--0-6-8-0-4-6-0-6-8-0-4-6-0-4-6---0-6-8-0-4-6-0-6-8-0-4-6-0---9---|
 |------------------------------------------------------------------|
 |------------------------------------------------------------------|
 |------------------------------------------------------------------|
 |------------------------------------------------------------------|
 |------------------------------------------------------------------|
 |--0-8-9-0-6-8-0-8-9-0-6-8-0-6-8---0-8-9-0-6-8-0-8-9---------------|
 |------------------------------------------------------------------| 

 


 


 I HAVE DECEIVED


 

 
 |-------9---------------9--------------------------|
 |--11-----11-------11-----11-----------------------|
 |-----9--------9------9-----------8-8-8-8-8--------|
 |---------------------------------8-8-8-8-8--------| [x2]
 |---------------------------------6-6-6-6-6--------|
 |--------------------------------------------------| 

 


 . . . . .


 


 CHORUS


 COLD FLESH....


 

 
 |---------------------------------------------------------|
 |------------------------------6-7-6--------6-----9-7-6---|
 |--8-8-8-8-8---10-10-10-10-10--------8-6------8-6---------|
 |--8-8-8-8-8---X--X--X--X--X-------------8----------------|
 |--6-6-6-6-6---8--8--8--8--8------------------------------|
 |---------------------------------------------------------|
 |---------------------------------------------------------|
 |------------------------------6-7-6--------6-----9-7-6---|
 |--8-8-8-8-8---10-10-10-11-11--------8-6------8-6---------|
 |--8-8-8-8-8---X--X--X--X--X-------------8----------------|
 |--6-6-6-6-6---8--8--8--9--9------------------------------|
 |---------------------------------------------------------|
 |------9-----9--------------9-----9----------------------|
 |--6-7---6-7---7-6-7-9--6-7---6-7----9-9-7-6-------------|
 |--------------------------------------------------------|
 |--------------------------------------------------------|
 |--------------------------------------------------------|
 |--------------------------------------------------------| 

 


 


 INTRO


 

 
 |--13-13-13-13-13-13-13-14-14-14-14-14-14-14-12-12-12-12-12-12-12--|
 |------------------------------------------------------------------|
 |------------------------------------------------------------------|
 |------------------------------------------------------------------| [x4]
 |------------------------------------------------------------------|
 |------------------------------------------------------------------|
 |------------|
 |------------|
 |--8-8-8-8---|
 |--8-8-8-8---|
 |--6-6-6-6---|
 |------------|

 


 


 DARLING QUEEN I LAY AT YOUR FEET


 

 
 |-----------------------------------|
 |-----------------------------------|
 |-----------------------------------|
 |-----------------------------------|
 |--0-8-9-0-6-8-0-8-9-0-6-8-0-6-8----|
 |-----------------------------------|

 


 


 VERSE


 CHILLS TAKE ME AS...


 

 
 |------------------------------------------------------------------|
 |------------------------------------------------------------------|
 |------------------------------------------------------------------|
 |------------------------------------------------------------8-----|
 |--0-6-8-0-4-6-0-6-8-0-4-6-0-4-6---0-6-8-0-4-6-0-6-8-0-4-6-0---9---|
 |------------------------------------------------------------------|
 |------------------------------------------------------------------|
 |------------------------------------------------------------------|
 |------------------------------------------------------------------|
 |------------------------------------------------------------8-----|
 |--0-8-9-0-6-8-0-8-9-0-6-8-0-6-8---0-8-9-0-6-8-0-8-9-0-6-8-0---9---|
 |------------------------------------------------------------------|
 |------------------------------------------------------------------|
 |------------------------------------------------------------------|
 |------------------------------------------------------------------|
 |------------------------------------------------------------8-----|
 |--0-6-8-0-4-6-0-6-8-0-4-6-0-4-6---0-6-8-0-4-6-0-6-8-0-4-6-0---9---|
 |------------------------------------------------------------------|
 |----------------------------------------------------------|
 |----------------------------------------------------------|
 |----------------------------------------------------------|
 |----------------------------------------------------------|
 |--0-8-9-0-6-8-0-8-9-0-6-8-0-6-8---0-8-9-0-6-8-0-8-9-------|
 |----------------------------------------------------------|

 


 


 IM SO CONSUMED....


 

 
 |---------------------------------6-----13----------------------|
 |----------7----------------7--------------11-10---8-10-8-11----|
 |--8---8-----8---8--8---8-----8-9-------------------------------|
 |----9---9-----9------9---9-------------------------------------| [x2]
 |---------------------------------------------------------------|
 |---------------------------------------------------------------| 

 


 . . . . . . . . . . . . .


 


 CHORUS


 COLD FLESH....


 


 BRIDGE


 THE PAINS OF DEATH...


 

 
 |----------------------------------|
 |----------------------------------|
 |--8-------8-------8--------8-8----|
 |--8-------8-------8--------8-8----|
 |--6-------6-------6--------6-6----|
 |----------------------------------|

 


 


 NIGHT DESCENDS....


 

 
 |--------------------------------------------------------|
 |--9-11-12-11-----------12-11-12-11-12-11-12-------------|
 |---------------8-8-8-8-----------------------8-8-8-8----|
 |---------------8-8-8-8-----------------------8-8-8-8----|
 |---------------6-6-6-6-----------------------6-6-6-6----|
 |--------------------------------------------------------|
 |-------------9---------------------------------------------------|
 |--9-11-12-11---12-11-12---------12-11-12-11-12-11-12-------------|
 |------------------------8-8-8-8-----------------------8-8-8-8----|
 |------------------------8-8-8-8-----------------------8-8-8-8----|
 |------------------------6-6-6-6-----------------------6-6-6-6----|
 |-----------------------------------------------------------------|
 |--------------------------------------------------------|
 |--9-11-12-11-----------12-11-12-11-12-11-12-------------|
 |---------------8-8-8-8-----------------------8-8-8-8----|
 |---------------8-8-8-8-----------------------8-8-8-8----|
 |---------------6-6-6-6-----------------------6-6-6-6----|
 |--------------------------------------------------------|
 |-------------9----------------------|
 |--9-11-12-11---12-11-12-------------|
 |---------------------------8-----8--|
 |---------------------------8-----8--|
 |---------------------------6-----6--|
 |------------------------------------|

 


 


 CHORUS


 COLD FLESH.... [x2]


 


 ENDING


 WHAT I HAVE DONE!!


 

 
 |-----------|
 |-----------|
 |-----8-----|
 |-----8-----|
 |-----6-----|
 |-----------|


Important: The song above is NOT stored on the Chordie server. The original song is hosted at www.azchords.com. Chordie works as a search engine and provides on-the-fly formatting. Chordie does not index songs against artists'/composers' will. To remove this song please click here.

This song is displayed as text-only. Transposing and tuning is only available for chordpro-songs.
Rate #1 of 1 versions

Login - add to songbook

SHARE PAGE  



You need to log in to post comments