Guitar Tabs, Chords and Lyrics
Server problems seems to be fixed. Chordie has been experiencing problems with songs disappearing. These issues now seems to be fixed, but still verifying the fix. If you find anything strange, please email admin@chordie.com.


This House Is Haunted   Alice Cooper

 
 e|------1---------1---------1---------1---|-----1--------1---------1-----1----------|
 B|----2---2----2---2-----2---2-----2---2--|---2---2----2---2-----2---2---2----------|
 G|--3--------3---------2---------2--------|-3--------3---------2--------------------|
 D|----------------------------------------|-----------------------------------------|
 A|----------------------------------------|-----------------------------------------|
 E|----------------------------------------|-----------------------------------------|

 


 


 VERSE


 let ring


 

 
 e|-------------------------------------------------------|
 B|-------------------------------------------------------|
 G|-------------------------------------------------------|
 D|-------------------------------------------------------|
 A|----6-5------------6-5----------6-5---4----2-----------|
 E|-4--------------4------------4------------------4------|
 e|-------------------------------------------------------|
 B|-------------------------------------------------------|
 G|-------------------------------------------------------|
 D|-------------------------------------------------------|
 A|----6-5------------6-5----------6-5---4----2-----------|
 E|-4--------------4------------4------------------4------|
 e|-------------------------------------------------------|
 B|-------------------------------------------------------|
 G|-------------------------------------------------------|
 D|-------------------------------------------------------|
 A|----8-7-----------8-7-----------8-7---6----4-----------|
 E|-6--------------6------------6-------------------------|
 e|-------------------------------------------------------|
 B|-------------------------------------------------------|
 G|-------------------------------------------------------|
 D|-------------------------------------------------------|
 A|----6-5------------6-5----------6-5---4----2-----------|
 E|-4--------------4------------4------------------4------|

 


 


 CHORUS 1


 


 

 
 e|------1-------1-------1---------1---|-----1-------1---------1-----1-----------|
 B|----2---2---2---2---2---2-----2---2-|---2---2---2---2-----2---2---2-----------|
 G|--3-------3-------2-------2---------|-3-------3---------2---------------------|
 D|------------------------------------|-----------------------------------------| 2x
 A|------------------------------------|-----------------------------------------|
 E|------------------------------------|-----------------------------------------|

 


 


 now play verse.it`s just like the first one


 


 


 chorus 2


 


 chorus changes over the singing as u see


 


 

 
 e|-------1---1---1-------------1---1---1-------------|
 B|---------2---------------------2-------------------|
 G|-3---3-------3------3----3---------3---------------|
 D|---------------------------------------------------|
 A|---------------------------------------------------|
 E|---------------------------------------------------|
 e|-------1---1---1-------------1---1----1------------|
 B|---------2---------------------2-------------------|
 G|-2---2-------2------2----2----------2--------------|
 D|---------------------------------------------------|
 A|---------------------------------------------------|
 E|---------------------------------------------------|
 e|-----------1-------1------------------1----------1-|
 B|--------2-----2--------------------2-----2---------|
 G|-3---3-----------3------3-------3-------------3----|

 


 it changes right here!you just play what you see:)its all here


 

 
 D|---------------------------------------------------|
 A|---------------------------------------------------|
 E|---------------------------------------------------|
 e|-----------1-------1------------------1----------1-|
 B|--------2-----2--------------------2-----2---------|
 G|-2---2-----------2-------2------2--------------2---|
 D|---------------------------------------------------|
 A|---------------------------------------------------|
 E|---------------------------------------------------|
 e|-----------1-------1------------------1----------1-|
 B|--------2-----2--------------------2-----2---------|
 G|-3---3-----------3------3-------3-------------3----|
 D|---------------------------------------------------|
 A|---------------------------------------------------|
 E|---------------------------------------------------|
 e|-----------1-------1------------------1----------1-|
 B|--------2-----2--------------------2-----2---------|
 G|-2---2-----------2-------2------2--------------2---|
 D|---------------------------------------------------|
 A|---------------------------------------------------|
 E|---------------------------------------------------|
 e|-----------1-------1------------------1----------1-|
 B|--------2-----2--------------------2-----2---------|
 G|-3---3-----------3------3-------3-------------3----|
 D|---------------------------------------------------|
 A|---------------------------------------------------|
 E|---------------------------------------------------|
 e|-----------1-------1------------------1----------1-|
 B|--------2-----2--------------------2-----2---------|
 G|-2---2-----------2-------2------2--------------2---|
 D|---------------------------------------------------|
 A|---------------------------------------------------|
 E|---------------------------------------------------|

 


 


 OUTRO


 


 1ST GUITAR


 

 
 e|------------------------------------------------------------|
 B|------------------------------------------------------------|
 G|------------------------------------------------------------| 2X
 D|--6--13--12-----6--13--12----6--13--12--11-9--6-------------|
 A|--6--13--12-----6--13--12----6--13--12--11-9--6-------------|
 E|--4--11--10-----4--11--10----4--11--10--9--7--4-------------|
 e|------------------------------------------------------------|
 B|------------------------------------------------------------|
 G|------------------------------------------------------------|
 D|--8--15--14-----8--15--14----8--15--14--15--12--12--12--12--|
 A|--8--15--14-----8--15--14----8--15--14--15--12--12--12--12--|
 E|--6--13--12-----6--13--12----6--13--12--13--10--10--10--10--|

 


 


 2ND GUITAR


 

 
 e|------------------------------------------------------------|
 B|------------------------------------------------------------|
 G|-----8--7--------8--7-------8--7--6--4----------------------|
 D|--6--8--7-----6--8--7----6--8--7--6--4--6-------------------|2x
 A|--6--6--5-----6--6--5----6--6--5--4--2--6-------------------|
 E|--4-----------4----------4--------------4-------------------|
 e|------------------------------------------------------------|
 B|------------------------------------------------------------|
 G|-----10--9-------10--9------10--9--10--7--7--7--7-----------|
 D|--8--10--9----8--10--9---8--10--9--10--7--7--7--7-----------|
 A|--8--8---7----8--8---7---8--8---7--8---5--5--5--5-----------|
 E|--6-----------6----------6----------------------------------|

 


 


 [Bass]  


 

 
 e|-------------------------------------------------------|
 B|-------------------------------------------------------|
 G|-------------------------------------------------------|
 D|-------------------------------------------------------|2x
 A|----6-5------------6-5----------6-5---4----2-----------|
 E|-4--------------4------------4------------------4------|
 e|-------------------------------------------------------|
 B|-------------------------------------------------------|
 G|-------------------------------------------------------|
 D|-------------------------------------------------------|
 A|----8-7-----------8-7-----------8-7-8-5-5-5-5----------|
 E|-6--------------6------------6-------------------------|


Important: The song above is NOT stored on the Chordie server. The original song is hosted at www.azchords.com. Chordie works as a search engine and provides on-the-fly formatting. Chordie does not index songs against artists'/composers' will. To remove this song please click here.

This song is displayed as text-only. Transposing and tuning is only available for chordpro-songs.
Rate #1 of 1 versions

Login - add to songbook

SHARE PAGE  




You need to log in to post comments