Guitar Tabs, Chords and Lyrics
Server problems seems to be fixed. Chordie has been experiencing problems with songs disappearing. These issues now seems to be fixed, but still verifying the fix. If you find anything strange, please email admin@chordie.com.


Wicked Young Man  Alice Cooper



"WICKED YOUNG MAN" BY ALICE COOPER
WORDS AND MUSIC BY ALICE COOPER
P.M.= palm mute /= slide up \= slide down
A.H.= artificial harmonics ( )=CARRIED NOTES
 



GUITAR THREE
**A.H.(15ma).......................................................
 
 C-|--------------------------------|---------------------------------|
 G-|--------------------------------|---------------------------------|
 E-|--------------------------------|---------------------------------|
 B-|--------------------------------|---------------------------------|
 F-|--------------------------------|---------------------------------|
 C-|--0---0---0---0---0---0---0-----|--0---0---0---0---0---0---0------|

[D] [D] [D] [D] [D] [D] [D] [D] [D] [D] [D] [D] [D] [D] 
**HARMONICS PRODUCED BY NAIL OF MIDDLE FINGER ON THE PICKING HAND.
A.H.(15ma)....................................
 
 C-|--------------------------------|---------------------------------|
 G-|--------------------------------|---------------------------------|
 E-|--------------------------------|---------------------------------|
 B-|--------------------------------|---------------------------------|
 F-|--------------------------------|---------------------------------|
 C-|--0---0---0---0---0---0---0-----|--0---0---0---0------------------|

[D] [D] [D] [D] [D] [D] [D] [D] [D] [D] [D] 
GUITAR ONE
 
 C-|----------------------------------|----------------------------------|
 G-|----------------------------------|----------------------------------|
 E-|----------------------------------|----------------------------------|
 B-|-2---2---5---7---7/8---8---7---5--|-2---2---5---7---7/8---8---7---5--|
 F-|-2---2---5---7---7/8---8---7---5--|-2---2---5---7---7/8---8---7---5--|
 C-|-0---0---3---5---5/6---6---5---3--|-0---0---3---5---5/6---6---5---3--|
 C-|----------------------------------|----------------------------------|
 G-|----------------------------------|----------------------------------|
 E-|----------------------------------|----------------------------------|
 B-|-2---2---5---7---7/8---8---7---5--|-5/8---8---8---7---7---7---5---5--|
 F-|-2---2---5---7---7/8---8---7---5--|-5/8---8---8---7---7---7---5---5--|
 C-|-0---0---3---5---5/6---6---5---3--|-3/6---6---6---5---5---5---3---3--|

GUITAR ONE
 
 C-|----------------------------------|----------------------------------|
 G-|----------------------------------|----------------------------------|
 E-|----------------------------------|----------------------------------|
 B-|-2---2---5---7---7/8---8---7---5--|-2---2---5---7---7/8---8---7---5--|
 F-|-2---2---5---7---7/8---8---7---5--|-2---2---5---7---7/8---8---7---5--|
 C-|-0---0---3---5---5/6---6---5---3--|-0---0---3---5---5/6---6---5---3--|

|
| GUITAR THREE
| **A.H.(15ma)..................................................
 
 C-|---------------------------------|-----------------------------------|
 G-|---------------------------------|-----------------------------------|
 E-|---------------------------------|-----------------------------------|
 B-|---------------------------------|-----------------------------------|
 F-|---------------------------------|-----------------------------------|
 C-|-0---0---0---0-----0---0---0-----|--0---0---0---0-----0---0---0------|

[D] [D] [D] [D] [D] [D] [D] [D] [D] [D] [D] [D] [D] [D] 
 
 C-|----------------------------------|----------------------------------|
 G-|----------------------------------|----------------------------------|
 E-|----------------------------------|----------------------------------|
 B-|-2---2---5---7---7/8---8---7---5--|-5/8---8---8---7---7---7---5---5--|
 F-|-2---2---5---7---7/8---8---7---5--|-5/8---8---8---7---7---7---5---5--|
 C-|-0---0---3---5---5/6---6---5---3--|-3/6---6---6---5---5---5---3---3--|

|
| **A.H.(15ma)......................................
 
 C-|---------------------------------|-----------------------------------|
 G-|---------------------------------|-----------------------------------|
 E-|---------------------------------|-----------------------------------|
 B-|---------------------------------|-----------------------------------|
 F-|---------------------------------|-----------------------------------|
 C-|-0---0---0---0-----0---0---0-----|----0---0---0---0------------------|

[D] [D] [D] [D] [D] [D] [D] [D] [D] [D] [D] 
VERSE
GUITAR ONE
P.M..............................................................
 
 C-|---------------------------------|---------------------------------|
 G-|---------------------------------|---------------------------------|
 E-|---------------------------------|---------------------------------|
 B-|---------------------------------|---------------------------------|
 F-|---------------------------------|---------------------------------|
 C-|--0---0---0---0---0---0---0---0--|--0---0---0---0---0---0---0---0--|

|
| GUITAR TWO
 
 C-|---------------------------------|---------------------------------|
 G-|---------------------------------|---------------------------------|
 E-|---------------------------------|---------------------------------|
 B-|----------8----------------------|-(8)-----------------------------|
 F-|------7--------------------------|---------------------------------|
 C-|--0------------------------------|---------------------------------|

P.M...............................**..............................
 
 C-|---------------------------------|---------------------------------|
 G-|---------------------------------|---------------------------------|
 E-|---------------------------------|---------------------------------|
 B-|---------------------------------|---------------------------------|
 F-|---------------------------------|---------------------------------|
 C-|--0---0---0---0---0---0---0---0--|--0---0---3---0---0---0---3---0--|

| **(ONLY P.M. FIRST TIME)
|
 
 C-|---------------------------------|---------------------------------|
 G-|---------------------------------|---------------------------------|
 E-|---------------------------------|---------------------------------|
 B-|----------8----------------------|--8-----------7-----------5------|
 F-|------7--------------------------|---------------------------------|
 C-|--0------------------------------|----------0-----------0----------|

P.M..............................................................
 
 C-|---------------------------------|---------------------------------|
 G-|---------------------------------|---------------------------------|
 E-|---------------------------------|---------------------------------|
 B-|---------------------------------|---------------------------------|
 F-|---------------------------------|---------------------------------|
 C-|--0---0---0---0---0---0---0---0--|--0---0---0---0---0---0---0---0--|

|
| GUITAR TWO
 
 C-|---------------------------------|---------------------------------|
 G-|---------------------------------|---------------------------------|
 E-|---------------------------------|---------------------------------|
 B-|----------8----------------------|-(8)-----------------------------|
 F-|------7--------------------------|---------------------------------|
 C-|--0------------------------------|---------------------------------|

P.M............................. VERSE END
 
 C-|---------------------------------|---------------------------------|
 G-|---------------------------------|---------------------------------|
 E-|---------------------------------|---------------------------------|
 B-|---------------------------------|---------------------------------|
 F-|---------------------------------|---------------------------------|
 C-|--0---0---0---0---0---0---0---0--|--0---0---3---0---0---0---3---0--|

|
|
 
 C-|---------------------------------|---------------------------------|
 G-|---------------------------------|---------------------------------|
 E-|---------------------------------|---------------------------------|
 B-|----------10---------------------|--8-----------7-----------5------|
 F-|------7--------------------------|---------------------------------|
 C-|--0------------------------------|----------0-----------0----------|

GUITAR ONE
 
 C-|----------------------------------|----------------------------------|
 G-|----------------------------------|----------------------------------|
 E-|----------------------------------|----------------------------------|
 B-|-2---2---5---7---7/8---8---7---5--|-2---2---5---7---7/8---8---7---5--|
 F-|-2---2---5---7---7/8---8---7---5--|-2---2---5---7---7/8---8---7---5--|
 C-|-0---0---3---5---5/6---6---5---3--|-0---0---3---5---5/6---6---5---3--|

|
| GUITAR THREE
| **A.H.(15ma)..................................................
 
 C-|---------------------------------|-----------------------------------|
 G-|---------------------------------|-----------------------------------|
 E-|---------------------------------|-----------------------------------|
 B-|---------------------------------|-----------------------------------|
 F-|---------------------------------|-----------------------------------|
 C-|-0---0---0---0-----0---0---0-----|--0---0---0---0-----0---0---0------|

[D] [D] [D] [D] [D] [D] [D] [D] [D] [D] [D] [D] [D] [D] 
 
 C-|----------------------------------|----------------------------------|
 G-|----------------------------------|----------------------------------|
 E-|----------------------------------|----------------------------------|
 B-|-2---2---5---7---7/8---8---7---5--|-5/8---8---8---7---7---7---5---5--|
 F-|-2---2---5---7---7/8---8---7---5--|-5/8---8---8---7---7---7---5---5--|
 C-|-0---0---3---5---5/6---6---5---3--|-3/6---6---6---5---5---5---3---3--|

|
| **A.H.(15ma)..................................................
 
 C-|---------------------------------|-----------------------------------|
 G-|---------------------------------|-----------------------------------|
 E-|---------------------------------|-----------------------------------|
 B-|---------------------------------|-----------------------------------|
 F-|---------------------------------|-----------------------------------|
 C-|-0---0---0---0-----0---0---0-----|----0---0---0---0---0---0---0------|

[D] [D] [D] [D] [D] [D] [D] [D] [D] [D] [D] [D] [D] [D] 
2ND VERSE (SAME AS ABOVE)
THEN PLAY
CHORUS
GUITAR ONE
 
 C-|---------------------------------|---------------------------------|
 G-|---------------------------------|---------------------------------|
 E-|--9---9---9---9---9---9---7------|------------------------------7--|
 B-|--9---9---9---9---9---9---7---7--|--5---5---5---5---5---7---5---7--|
 F-|--7---7---7---7---7---7---5---7--|--5---5---5---5---5---7---5---5--|
 C-|--0---0---0---0---0---0-------5--|--3---3---3---3---3---5---3------|

CHORUS END
 
 C-|---------------------------------|---------------------------------|
 G-|---------------------------------|---------------------------------|
 E-|--9---9---9---9---9---9---7------|------------------------------7--|
 B-|--9---9---9---9---9---9---7---7--|--5---5---5---5---5---7---5---7--|
 F-|--7---7---7---7---7---7---5---7--|--5---5---5---5---5---7---5---5--|
 C-|--0---0---0---0---0---0-------5--|--3---3---3---3---3---5---3------|
 C-|----------------------------------|----------------------------------|
 G-|----------------------------------|----------------------------------|
 E-|----------------------------------|----------------------------------|
 B-|-2---2---5---7---7/8---8---7---5--|-2---2---5---7---7/8---8---7---5--|
 F-|-2---2---5---7---7/8---8---7---5--|-2---2---5---7---7/8---8---7---5--|
 C-|-0---0---3---5---5/6---6---5---3--|-0---0---3---5---5/6---6---5---3--|

|
| GUITAR THREE
| **A.H.(15ma)..................................................
 
 C-|---------------------------------|-----------------------------------|
 G-|---------------------------------|-----------------------------------|
 E-|---------------------------------|-----------------------------------|
 B-|---------------------------------|-----------------------------------|
 F-|---------------------------------|-----------------------------------|
 C-|-0---0---0---0-----0---0---0-----|--0---0---0---0-----0---0---0------|

[D] [D] [D] [D] [D] [D] [D] [D] [D] [D] [D] [D] [D] [D] 
 
 C-|----------------------------------|----------------------------------|
 G-|----------------------------------|----------------------------------|
 E-|----------------------------------|----------------------------------|
 B-|-2---2---5---7---7/8---8---7---5--|-5/8---8---8---7---7---7---5---5--|
 F-|-2---2---5---7---7/8---8---7---5--|-5/8---8---8---7---7---7---5---5--|
 C-|-0---0---3---5---5/6---6---5---3--|-3/6---6---6---5---5---5---3---3--|

|
| **A.H.(15ma)..................................................
 
 C-|---------------------------------|-----------------------------------|
 G-|---------------------------------|-----------------------------------|
 E-|---------------------------------|-----------------------------------|
 B-|---------------------------------|-----------------------------------|
 F-|---------------------------------|-----------------------------------|
 C-|-0---0---0---0-----0---0---0-----|----0---0---0---0---0---0---0------|

[D] [D] [D] [D] [D] [D] [D] [D] [D] [D] [D] [D] [D] [D] 
3RD VERSE (SAME AS ABOVE)
ALSO PLAY THE "MAIN RIFF" THAT FOLLOWS AND THEN;
BRIDGE
GUITAR ONE
**P.M...............................................................
 
 C-||---------------------------------|---------------------------------||
 G-||.--------------------------------|--------------------------------.||
 E-||---------------------------------|---------------------------------||
 B-||---------------------------------|---------------------------------||
 F-||.--------------------------------|--------------------------------.||
 C-||--0---0---3---0---0---0---3---0--|--0---0---3---0---0---0---3---0--||

**THIS PART IS SUPPOSED TO BE BASS
P.M...............................................................
 
 C-|---------------------------------|---------------------------------|
 G-|---------------------------------|---------------------------------|
 E-|---------------------------------|---------------------------------|
 B-|---------------------------------|---------------------------------|
 F-|---------------------------------|---------------------------------|
 C-|--0---0---3---0---0---0---3---0--|--0---0---3---0---0---0---3---0--|

|
| GUITAT TWO
 
 C-|---------------------------------|---------------------------------|
 G-|---------------------------------|---------------------------------|
 E-|---------------------------------|---------------------------------|
 B-|----------8----------------------|-(8)-----------------------------|
 F-|------7--------------------------|---------------------------------|
 C-|--0------------------------------|---------------------------------|

P.M...............................................................
 
 C-|---------------------------------|---------------------------------|
 G-|---------------------------------|---------------------------------|
 E-|---------------------------------|---------------------------------|
 B-|---------------------------------|---------------------------------|
 F-|---------------------------------|---------------------------------|
 C-|--0---0---3---0---0---0---3---0--|--0---0---3---0---0---0---3---0--|

|
|
 
 C-|---------------------------------|---------------------------------|
 G-|---------------------------------|---------------------------------|
 E-|---------------------------------|---------------------------------|
 B-|----------8----------------------|--8-----------7-----------5------|
 F-|------7--------------------------|---------------------------------|
 C-|--0------------------------------|----------0-----------0----------|

P.M...............................................................
 
 C-|---------------------------------|---------------------------------|
 G-|---------------------------------|---------------------------------|
 E-|---------------------------------|---------------------------------|
 B-|---------------------------------|---------------------------------|
 F-|---------------------------------|---------------------------------|
 C-|--0---0---3---0---0---0---3---0--|--0---0---3---0---0---0---3---0--|

|
| GUITAT TWO
 
 C-|---------------------------------|---------------------------------|
 G-|---------------------------------|---------------------------------|
 E-|---------------------------------|---------------------------------|
 B-|----------8----------------------|-(8)-----------------------------|
 F-|------7--------------------------|---------------------------------|
 C-|--0------------------------------|---------------------------------|

P.M...............................................................
 
 C-|---------------------------------|---------------------------------|
 G-|---------------------------------|---------------------------------|
 E-|---------------------------------|---------------------------------|
 B-|---------------------------------|---------------------------------|
 F-|---------------------------------|---------------------------------|
 C-|--0---0---3---0---0---0---3---0--|--0---0---3---0---0---0---3---0--|

|
|
 
 C-|---------------------------------|---------------------------------|
 G-|---------------------------------|---------------------------------|
 E-|---------------------------------|---------------------------------|
 B-|----------10---------------------|--8-----------7-----------5------|
 F-|------7--------------------------|---------------------------------|
 C-|--0------------------------------|----------0-----------0----------|

GUITAR ONE (HARD PAN LEFT)
 
 C-|----------------------------------|----------------------------------|
 G-|----------------------------------|----------------------------------|
 E-|----------------------------------|----------------------------------|
 B-|-2---2---5---7---7/8---8---7---5--|-2---2---5---7---7/8---8---7---5--|
 F-|-2---2---5---7---7/8---8---7---5--|-2---2---5---7---7/8---8---7---5--|
 C-|-0---0---3---5---5/6---6---5---3--|-0---0---3---5---5/6---6---5---3--|
 C-|----------------------------------|----------------------------------|
 G-|----------------------------------|----------------------------------|
 E-|----------------------------------|-------------DRUMS FILL-----------|
 B-|-2---2---5---7---7/8---8---7---5--|----------------------------------|
 F-|-2---2---5---7---7/8---8---7---5--|----------------------------------|
 C-|-0---0---3---5---5/6---6---5---3--|----------------------------------|

CHORUS (SAME AS ABOVE) X4 TIMES
THEN PLAY
GUITAR ONE
 
 C-|----------------------------------|----------------------------------|
 G-|----------------------------------|----------------------------------|
 E-|----------------------------------|----------------------------------|
 B-|-2---2---5---7---7/8---8---7---5--|-2---2---5---7---7/8---8---7---5--|
 F-|-2---2---5---7---7/8---8---7---5--|-2---2---5---7---7/8---8---7---5--|
 C-|-0---0---3---5---5/6---6---5---3--|-0---0---3---5---5/6---6---5---3--|
 C-|----------------------------------|----------------------------------|
 G-|----------------------------------|----------------------------------|
 E-|----------------------------------|----------------------------------|
 B-|-2---2---5---7---7/8---8---7---5--|-5/8---8---8---7---7---7---5---5--|
 F-|-2---2---5---7---7/8---8---7---5--|-5/8---8---8---7---7---7---5---5--|
 C-|-0---0---3---5---5/6---6---5---3--|-3/6---6---6---5---5---5---3---3--|
 C-|----------------------------------|----------------------------------|
 G-|----------------------------------|----------------------------------|
 E-|----------------------------------|----------------------------------|
 B-|-2---2---5---7---7/8---8---7---5--|-2---2---5---7---7/8---8---7---5--|
 F-|-2---2---5---7---7/8---8---7---5--|-2---2---5---7---7/8---8---7---5--|
 C-|-0---0---3---5---5/6---6---5---3--|-0---0---3---5---5/6---6---5---3--|

|
| GUITAR THREE
| **A.H.(15ma)..................................................
 
 C-|---------------------------------|-----------------------------------|
 G-|---------------------------------|-----------------------------------|
 E-|---------------------------------|-----------------------------------|
 B-|---------------------------------|-----------------------------------|
 F-|---------------------------------|-----------------------------------|
 C-|-0---0---0---0-----0---0---0-----|--0---0---0---0-----0---0---0------|

[D] [D] [D] [D] [D] [D] [D] [D] [D] [D] [D] [D] [D] [D] 
 
 C-|----------------------------------|----------------------------------|
 G-|----------------------------------|----------------------------------|
 E-|----------------------------------|----------------------------------|
 B-|-2---2---5---7---7/8---8---7---5--|-5/8---8---8---7---7---7---5---5--|
 F-|-2---2---5---7---7/8---8---7---5--|-5/8---8---8---7---7---7---5---5--|
 C-|-0---0---3---5---5/6---6---5---3--|-3/6---6---6---5---5---5---3---3--|

|
| **A.H.(15ma)..................................................
 
 C-|---------------------------------|-----------------------------------|
 G-|---------------------------------|-----------------------------------|
 E-|---------------------------------|-----------------------------------|
 B-|---------------------------------|-----------------------------------|
 F-|---------------------------------|-----------------------------------|
 C-|-0---0---0---0-----0---0---0-----|----0---0---0---0---0---0---0------|

[D] [D] [D] [D] [D] [D] [D] [D] [D] [D] [D] [D] [D] [D] 
GUITAR THREE
A.H.(15ma).......................................................
 
 C-|--------------------------------|---------------------------------|
 G-|--------------------------------|---------------------------------|
 E-|--------------------------------|---------------------------------|
 B-|--------------------------------|---------------------------------|
 F-|--------------------------------|---------------------------------|
 C-|--0---0---0---0---0---0---0-----|--0---0---0---0---0---0---0------|

[D] [D] [D] [D] [D] [D] [D] [D] [D] [D] [D] [D] [D] [D] 
A.H.(15ma)....................................
 
 C-|--------------------------------|---------------------------------||
 G-|--------------------------------|---------------------------------||
 E-|--------------------------------|---------------------------------||
 B-|--------------------------------|---------------------------------||
 F-|--------------------------------|---------------------------------||
 C-|--0---0---0---0---0---0---0-----|--0---0---0---0---0---0---0------||

[D] [D] [D] [D] [D] [D] [D] [D] [D] [D] [D] [D] [D] [D] 

Important: The song above is NOT stored on the Chordie server. The original song is hosted at www.azchords.com. Chordie works as a search engine and provides on-the-fly formatting. Chordie does not index songs against artists'/composers' will. To remove this song please click here.

Text color:
Chord color:
Chord grids: 
Font size:    
Page size: 

D
Rate #1 of 2 versions

Login - add to songbook

SHARE PAGE  



You need to log in to post comments