Guitar Tabs, Chords and Lyrics
Update 25:10. 13:00. Site is back up running again. Songbooks are recovered. Woring on getting search back up..


Hate to Feel  Alice in Chains

Alice in Chains
Hate to Feel
Words and Music by Layne Staley (RIP)
Tune Down a ½ step
[Eb] [Ab] [Db] [Gb] [Bb] [Eb]  
key:
/\/\/\/\/\/\= vibrato
NH= Natural Harmonic
PH=Pinch Harmonic
^Full = Bend up 1 Step
^1/2 = Bend up ½ a step
Intro/ Verse
Slow Rock
6/8 time
Guitars 1&2
 
 Eb-----------------------------------------------------------------------------------
 Bb-----------------------------------------------------------------------------------
 Gb-----------------------------------------------------------------------------------
 Db--6/\/\/\/\---5\/\/\/\---4/\/\/\/\/\/\-------------------------------------------------
 Ab--7/\/\/\/\---6/\/\/\/\--5/\/\/\/---------6/\/\/\---5/\/\/\---4/\/\/\------------------
 Eb------------------------------------------7/\/\/\---6/\/\/\---5/\/\/\------0--3/\/\/\/\-
 Eb------------------------------------------------------------------------------------------------
 Bb----------------------------------------------------------------------------------0------------
 Gb--------------------------------------------------------------------------2^full---------------
 Db--6/\/\/\/\---5\/\/\/\---4/\/\/\/\-------------------------------------------------------------
 Ab--7/\/\/\/\---6/\/\/\/\--5/\/\/\/---------6/\/\/\---5/\/\/\---4/\/\/\-------------------------------
 Eb------------------------------------------7/\/\/\---6/\/\/\---5/\/\/\---0---------3-----3/\/\/\/\-

Moderate Rock
4/4 Time
Guitar 2 plays this until Layne Says ??Plastic man, Paper Face?? or ??New orleans?? the second time and third time that??s when it stops
 
 Eb--15------------15---------------
 Bb------15------------15-----------
 Gb----------15------------15-------
 Db-----------------------------------
 Ab-----------------------------------
 Eb-----------------------------------

Guitar 1 plays this until the aforementioned ??paper face?? part
 
 Eb------------
 Bb------------
 Gb------------
 Db------------
 Ab------------
 Eb--0-0-6----

Then it gets into this
Guitars 1&2 play riff as needed
 
 Eb----------------------------------------------------------------------------------------
 Bb--------------------------------------------------------------------------------------
 Gb-------------------------------------------------------------------------------------
 Db-------------------------------------------------------------------------------------
 Ab------------------------------------------------------------------------------------
 Eb--0-0-6-------(5)NH--0--0--6----(5)NH(5)NH--0--0--6---(5)NH-0---0--6-

Pre-chorus
[E]Stare at me with empty eyes and[F] point your words at m[Bb]e,[E]
[E]Mirror on the wall will show yo[F]u what your scared to [Bb]see[E]
Chorus:
I can See[E] [Bb5]
Wish I couldn??t see at all
Guitar 2 Play this twice
 
 Eb----------------------------------------------
 Bb---9h10---9---------------------------------
 Gb-----------------7----------7-------9-------10
 Db-----------------------------------------------
 Ab-----------------------------------------------
 Eb-----------------------------------------------

I can feel[E] [Bb5]
Wish I couldn??t feel at all
Hate to see [E] [Bb5]
Wish I couldn??t see at all
Hate to feel [E] [Bb5]
Wish I couldn??t feel at all
Guitar 2
 
 Eb---------------------10^full-----
 Bb---9h10--9----------------------
 Gb--------------7-------------------
 Db----------------------------------
 Ab----------------------------------
 Eb-----------------------------------

Go back to verse riff but Guitar 2 plays this at the very beginning of the 2nd verse
 
 Eb----------------------------------------------
 Bb---15^full---12/\/\/\/\/\/\/\/\/\/\--(12)\----
 Gb---------------------------------------------
 Db----------------------------------------------
 Ab----------------------------------------------
 Eb----------------------------------------------

Pre-Chorus
[E]All this time I swore I??[F]d never be like my old[Bb] man[E]
[E]What the hay its time to fac[F]e exactly who I am[Bb] [E]
Do Chorus
After Chorus, Solo goes over verse riff
Solo:
 
 Eb--10^full ---15----------15---------------------------------------------------------------------
 Bb-----------------15^full-----15^full then release slowly----------------------------12--------
 Gb-----------------------------------------------------------------12--14--14^ ½^14 ------------12-
 Db------------------------------------------------------------------------------------------------14-----
 Ab--------------------------------------------------------------------------------------------------------
 Eb--------------------------------------------------------------------------------------------------------
 Eb-------------------------------------------------12---------------------------------------------
 Bb---------------------------------------------12-----15^full hold then do pull-off to 12----
 Gb-------12/\/\/\/\/\----------------------14^full-------------------------------------------------
 Db---14---------------12h14--------------------------------------------------------------------
 Ab------------------------------------------------------------------------------------------------
 Eb--------------------------------------------------------------------------------------------------
 Eb--------------------------------------------------------------------------------------------------
 Bb--------12--12/\/\/\/\/\-----------3/5--5---3---------------------------0-------------------
 Gb--------12--12/\/\/\/\/\-------------------------4\3--2PH^ ½ release-2^full--2p0-----------
 Db---14----------------------14------------------------------------------------------------0h2------
 Ab-----------------------------------------------------------------------------------------------------
 Eb-------------------------------------------------------------------------------------------------------
 Eb-----------------------------------------------------------------------------------------------------
 Bb---------------------------------------------------------------8--10^ gradual--10--10PH^full--
 Gb--------------7--/\/\/\/\--------7/\/\/\/\--7\9/\/\/\--9--7/9------9---------------------------------
 Db----2------6-----------------6----------------------------------------------------------------------
 Ab--------/7----------------/7---------------------------------------------------------------------------
 Eb--------------------------------------------------------------------------------------------------------
 Eb------------------------------------------------------------------------------------------------------
 Bb--10--8---8-----------------------------------------------------------------------------------------
 Gb---------9---9/\/\/\--9^full-----9--7----------------------------------------------------------------
 Db---------------------------9-----------9--8--7PH-5PH-7PH-7PH^ ½ -5PH- ----5--------------
 Ab-------------------------------------------------------------------------------------7------7p5h7p5
 Eb--------------------------------------------------------------------------------------------------------
 Eb-----------------------------------------/15^gradual bend and release--X-----17^full -------
 Bb-------------------------------------------------------------------------------------------17p15-
 Gb-----------------------------------------------------------------------------------------------------
 Db-----------------------------------------------------------------------------------------------------
 Ab---------5------------------------------------------------------------------------------------------
 Eb-5h6-7----6--5-3--3 dive with bar-----------------------------------------------------------------
 Eb------------

Bb--17p15-
 
 Gb-----------
 Db-------------
 Ab--------------
 Eb----------------

Bridge
Pre- Chorus
Chorus
Gradually get faster
Guitar 2
 
 Eb--15^full/\/\/\/\/\/--15^Full/\/\/\/\/--15^full/\/\/\/\--15^full/\/\/\/\/\/
 Bb----------------------------------------------------------------------------
 Gb-----------------------------------------------------------------------------
 Db-----------------------------------------------------------------------------
 Ab-----------------------------------------------------------------------------
 Eb------------------------------------------------------------------------------
 Eb--------------------------------------------------------------------------------------------------------
 Bb--14/\/\/\/--15^full/\/\/\/\-15^full/\/\/\/\-15^full/\/\/\/\-15^full/\/\/\ 14---------------------12
 Gb--14/\//\/------------------------------------------------------------------14 Trem. Pick both 12
 Db--------------------------------------------------------------------------------------------------------
 Ab----------------------------------------------------------------------------------------------------
 Eb-------------------------------------------------------------------------------------------------------

Chords
[E]Eb-0-
Bb-0-
[Gb-1-]  
[Db-2-]  
[Ab-2-]Eb--0-
[F]  
[Eb-1-]  
[Bb-1-]  
[Gb-2-]  
[Db-3-]  
[Ab-3-]  
[Eb-1-]  
[Bb]  
 
 Eb------
 Bb-3-----

[Gb-3---]  
 
 Db-3-----
 Ab-1------
 Eb---------

E and F can be used in triads if you prefer.
This has been taken right from the DIRT music book.
Mathis Hughes

Important: The song above is NOT stored on the Chordie server. The original song is hosted at www.azchords.com. Chordie works as a search engine and provides on-the-fly formatting. Chordie does not index songs against artists'/composers' will. To remove this song please click here.

Text color:
Chord color:
Chord grids: 
Font size:    
Page size: 

Ab Bb Bb5 Db E Eb F Gb
Rate #1 of 2 versions

Jango Player

Login - add to songbook

SHARE PAGE  



You need to log in to post comments