Guitar Tabs, Chords and Lyrics
Major upgrade!! After one year development the new version of Chordie is now online! Please give feedback.


Them Bones   Alice in Chains

 
 G[-7--------------------------------]
 D[-7--0----1----2----3----0---------]
 A[-5--0(x2)1(x4)2(x4)3(x2)0(x2)-----] X4
 D[----0----1----2----3----0---------]

 


 


 


 VERSE RIFF


 

 
 G[-7------------------]
 D[-7--0-1-1-2-2-0-----]
 A[-5--0-1-1-2-2-0-----] X8
 D[----0-1-1-2-2-0-----]

 


 


 CHORUS


 


 

 
 G[-3-3--3-3-3--2-2--2--2-2-2--5-5--4-4-4--3-3--2-2--]
 D[-3-3--3-3-3--2-2--2--2-2-2--5-5--4-4-4--3-3--2-2--]
 A[-1-1--1-1-1--0-0--0--0-0-0--3-3--2-2-2--1-1--0-0--] X1
 D[--------------------------------------------------]

 


 


 


 SOLO


 


 

 
 E[--------------------------8-8-8--6-5-6--5-------------]
 B[-8-^-8p6----------------5-----------------6-----------]
 G[---------7-5--------------------------------7---------]
 D[-------------7-5-3-5v-3---------------------------7-8-]
 A[----------------------------------------------7-8-----]
 D[------------------------------------------------------]
 E[---------5-6-5--------------------------------]
 B[---5-6-5-------9-10--12-^-10-12-10-9--9-10-^--]
 G[-5--------------------------------------------]
 D[----------------------------------------------]
 E[-15-^-15-14----14----14----20-^-20-19-18-19-----------]
 B[-------------15---15----15-----------------20-^--18-17]
 G[------------------------------------------------------]
 D[------------------------------------------------------]
 E[-13H15-15P13----] E[-15-^-15-14-----13H15-15P13----]
 B[-------------15-]X8 B[------------15--------------15-]
 G[----------------] G[-------------------------------]
 D[----------------] D[-------------------------------]
 E[------------------------------------------------------]
 B[------------------------------------------------------]
 G[-12-^V-12^-12^-12^-12-10-12-10--------12P10-10H12-----]
 D[------------------------------12-10-12------------12/3]


Important: The song above is NOT stored on the Chordie server. The original song is hosted at www.azchords.com. Chordie works as a search engine and provides on-the-fly formatting. Chordie does not index songs against artists'/composers' will. To remove this song please click here.

This song is displayed as text-only. Transposing and tuning is only available for chordpro-songs.
Rate #1 of 17 versions

Jango Player

Login - add to songbook

SHARE PAGE  




You need to log in to post comments