Guitar Tabs, Chords and Lyrics
Server problems seems to be fixed. Chordie has been experiencing problems with songs disappearing. These issues now seems to be fixed, but still verifying the fix. If you find anything strange, please email admin@chordie.com.


Settle for Satin  Alkaline Trio

Intro:
[Am] [Em] [F] [G] [E]  
 
 e|-------------|----------|-------------|----------------|
 B|-10-12-13-12-|----------|-10-12-13-12-|-13---12--13-12-|
 G|-------------|-12-10-9--|-------------|----------------|
 D|-------------|----------|-------------|----------------|
 A|------------------------|-------------|----------------|
 E|------------------------|-------------|----------------|

[Am] [Em] [F] [G] [E]  
 
 e|-------------|----------|-------------|-12--13-10-|
 B|-10-12-13-12-|----------|-10-12-13-12-|-----------|
 G|-------------|-12-10-9--|-------------|-----------|
 D|-------------|----------|-------------|-----------|
 A|------------------------|-------------|-----------|
 E|------------------------|-------------|-----------|

[Am]it's not so much a storm,
but just a [Em]cloud that lives inside of me
he [F]doesn't stir so easily these [G]days,
but when he [E]wakes he goes the [Am]distance
in a marathon of [Em]days too long
open containers [F]that sing songs,
"you'll never dream a[G]gain,
but you can [E]pray"
i guess we [Am]only settle [G]in to what we [F]know
i guess we [Am]always settle [G]in, and we [F]know.[G]
but there is [Am]comfort in a [G]world
where [Am]darkness is the [G]only thing we [Am]see
and cold [G]is all we have to [F]breathe[G]
where affec[Am]tations keep us [G]company,
where the [Am]lies we tell to the [G]eyes that roll in [Am]doubt
are somehow [C]out of our con[F]trol. [E] [Am]
[Am]it's not about the scars, but more the [Em]crowds that walk all over me
they [F]don't give up too easily these [G]days,
but when they [E]break they go to [Am]pieces.
fall apart right here in [Em]north side bars
under a sky that [F]knows no stars
you'll never shine [G]again,
but you will [E]stay.
i guess we [Am]only settle [G]in to what we [F]know
i guess we [Am]always settle [G]in, and we [F]know.[G]
but there is [Am]comfort in a [G]world
where [Am]darkness is the [G]only thing we [Am]see
and cold [G]is all we have to [F]breathe[G]
where affec[Am]tations keep us [G]company,
where the [Am]lies we tell to the [G]eyes that roll in [Am]doubt
are somehow [C]out of our con[F]trol.[E]
Am F Dm E F (4x)
but there is [Am]comfort in a [G]world
where [Am]darkness is the [G]only thing we [Am]see
and cold [G]is all we have to [F]breathe[G]
where affec[Am]tations keep us [G]company,
where the [Am]lies we tell to the [G]eyes that roll in [Am]doubt
are somehow [C]out of our con[F]trol.
[E]we lost con[Am]trol.

Important: The song above is NOT stored on the Chordie server. The original song is hosted at www.azchords.com. Chordie works as a search engine and provides on-the-fly formatting. Chordie does not index songs against artists'/composers' will. To remove this song please click here.

Text color:
Chord color:
Chord grids: 
Font size:    
Page size: 

Am C E Em F G
Rate #1 of 4 versions

Login - add to songbook

SHARE PAGE  




You need to log in to post comments