Guitar Tabs, Chords and Lyrics
Server problems seems to be fixed. Chordie has been experiencing problems with songs disappearing. These issues now seems to be fixed, but still verifying the fix. If you find anything strange, please email admin@chordie.com.


The End  Allison Weiss

 
 -------------------------------------------------------------------------------
 -------------------------------------------------------------------------------

Tuning: Standard
Capo 6 fret
The hammer-on's change in certain parts of the song, just listen and play accordingly.
She also plays some of the high strings when she strums, so just play with it
until you find a sound you like..... Enjoy
Intro
[G] [Gmaj9] [Em] [Cmaj7] [G] [G] [Gmaj9] [Em]  
 
 e|-----3----3----0-0-0-0-0----3----------3-3-3-3-3------3----3----0-0-0-0-0--|
 B|-----0----0----0-0-0-0-0----0----------0-0-0-0-0------0----0----0-0-0-0-0--|
 G|-----0----0----0-0-0-0-0----0-----0----0-0-0-0-0------0----0----0-0-0-0-0--|
 D|-----0----0----2-----2------2-0h2------0-0-0-0-0------0----0----2-----2----|
 A|-----2----0----2----------3------------2-2-2-2-2------2----0----2----------|
 E|---3----2----0-----------------------3--------------3----2----0------------|

[Cmaj7] [D] [Cmaj7] [G] [Gmaj9] [Em]  
 
 e|----3---------3-3-3-3---3---------3-3-3-3-3----3-3-3-3-3----0-0-0-0-0------|
 B|----0---------2-2-2-2---0---------0-0-0-0-0----0-0-0-0-0----0-0-0-0-0------|
 G|----0-----0---3-3-3-3---0-----0---0-0-0-0-0----0-0-0-0-0----0-0-0-0-0------|
 D|----2-0h2---0-----------2-0h2-----0-0-0-0-0----0-0-0-0-0----2-2-2-2-2------|
 A|--3-------------------3-----------2-2-2-2-2----0-0-0-0-0----2-2-2-2-2-oh2--|
 E|--------------------------------3------------2------------0----------------|
 e|-0-0-0-0-0---0-0-0-0-0------0-0-0-0-0--------------------------------------|
 B|-0-0-0-0-0---0-0-0-0-0------0-0-0-0-0--------------------------------------|
 G|-0-0-0-0-0---0-0-0-0-0------0-0-0-0-0--------------------------------------|
 D|-2-2-2-2-2---2-2-2-2-2------2-2-2-2-2--------------------------------------|
 A|-2-2-2-2-2---2-2-2-2-2-0h2--2-2-2-2-2--------------------------------------|
 E|-----------0---------------------------------------------------------------|

verse1
[G]Boy, you [Gmaj9]make it [Em]easy to for[Cmaj7]get we ever [G]met
[G]All this [Gmaj9]talk of [Em]keepin' touch, there's [Cmaj7]been no talkin' [D]yet
So [Cmaj7]tell me when you're [G]ready, man, and I'll [Gmaj9]call you my [Em]friend
But[Em] I d[D]on't m[Cmaj7]ind
[Cmaj7]Calling [D]this the [G]end
Verse2
[G]Boy, you [Gmaj9]make it [Em]easy for a [Cmaj7]girl to lose her [G]head
[G]Losing [Gmaj9]sleep, and [Em]losing time, hey, [Cmaj7]losers never [D]win
So [Cmaj7]shake my hand, call [Gmaj9]it a tie, and I'll [Gmaj9]call you my [Em]friend,
But[Em] I d[D]on't [Cmaj7]mind
[Cmaj7]Calling [D]this the [G]end
[G] The [Cmaj7]end
Verse3
[G]Boy, you [Gmaj9]make it [Em]easy for a [Cmaj7]memory to [G]bend
[G]Fact an[Gmaj9]d fiction [Em]fading into [Cmaj7]one confusing [D]blend
So [Cmaj7]I'll remember [G]good things now, and [Gmaj9]I'll call you my [Em]friend
But[Em] I d[D]on't [Cmaj7]mind
[Cmaj7]Calling [D]this the [G]end[G] [Gmaj9] [Em]
Interlude
There are [D]people who have [Cmaj7]changed my lif[G]e[Gmaj9] [Em]
And there are [D]faces I have [Cmaj7]left behin[G]d[Gmaj9] [Em]
If you ain't [D]up to it, I'll [Cmaj7]let it [G]die
[Cmaj7]But it's up to you
[Cmaj7]to change my mind
verse4
[G]Boy, you've [Gmaj9]got it [Em]easy, leaving, [Cmaj7]starting over [G]fresh
[G]Abandoni[Gmaj9]ng beginn[Em]ings that you [Cmaj7]brought to life and [D]left
So [Cmaj7]pack your bags and [G]say goodbye, and [Gmaj9]call me sometime, [Em]friend
'Cause[Em] I [D]don't [Cmaj7]mind
[Cmaj7]Calling [D]this the [G]end
[G]The end, the end, the end, the en[Cmaj7]d
[G]The end, then end,the end,the en en en en en[Cmaj7]d
THE [G]END

Important: The song above is NOT stored on the Chordie server. The original song is hosted at www.azchords.com. Chordie works as a search engine and provides on-the-fly formatting. Chordie does not index songs against artists'/composers' will. To remove this song please click here.

Text color:
Chord color:
Chord grids: 
Font size:    
Page size: 

Cmaj7 D Em G Gmaj9
Rate #2 of 4 versions

Jango Player

Login - add to songbook

SHARE PAGE  



You need to log in to post comments