Guitar Tabs, Chords and Lyrics
Server problems seems to be fixed. Chordie has been experiencing problems with songs disappearing. These issues now seems to be fixed, but still verifying the fix. If you find anything strange, please email admin@chordie.com.


Seven Turns  The Allman Brothers Band

(Live)
 
 ----------------------------------------------------------------------

[//////////////////////////////////////////////////////////////////////]  
 
 ----------------------------------------------------------------------

***** THIS IS A CORRECTION TO A PREVIOUS TAB SUBMITTED BY ME
(Seven Turns Intro ver 2(INFO))
***** SORRY ABOUT ANY CONFUSION
***** I ADDED THE REST OF THE SONG AS WELL
 
 ----------------------------------------------------------------------

[//////////////////////////////////////////////////////////////////////]  
 
 ----------------------------------------------------------------------

Song by: The Allman Brothers Band
Part 1 - Steel String Acoustic (EADGBe) Standard Tuning
Part 2 - Slide (EADGBe) Standard Tuning
Part 1 is done 4 times in total and the slide starts
after part one has been completed twice (Strumming on D Varies)
Listen to Song to figure it out.
Chords to song are:
G - 320033
G* - 300033
C* - 032033
C - x32010
EM - 022000
Em*- 020033
Am*- x02033
D - xx0232
 
 ----------------------------------------------------------------------

[//////////////////////////////////////////////////////////////////////]  
 
 ----------------------------------------------------------------------

Intro
[-----] ^ V ^ (D)
 
 1.|------------------------------2--2--2------|-----------------------| x4
 |------------------------------3--3--3------|-----------------------|
 |------------------------0-----2--2--2------|-----------------------|
 |-----------0---------2---------------------|-----------------------|
 |--------2-----2---3------------------------|-----------------------|
 |-----3-------------------------------------|-----------------------|
 2.|-------------------------------------------------------------------|
 |-----------------------------12\10---------12 12/10-10-------------|
 |-----2/4--0--2--2h4 4~2-2-----------12/14--------------------------|
 |-0--------------------------------------------------------12/14----|
 |-------------------------------------------------------------------|
 |-------------------------------------------------------------------|

Verse 1
 
 -------

[C]Seven turns on a Hi[G]ghway
[C]Seven rivers to cr[G]oss
[C]Sometimes you feel like y[Em]ou could fly a[G]way
[C]Sometimes yo[G]u get l[D]ost (Quick Transition)
[C]Sometimes in the darker ni[G]ght
[C]You see the crossroad s[G]ign
[C]What way is the mo[Em]rning l[G]ight
[C]You got to make ma[G]ke up your m[D]ind
Chours
 
 ------

G C* D
Somebody's callin your name
G C* D
Somebody's waitin for you
C* Em* Am* G*
Love is all that remains the same
Em* C* D
That's what it's all coming to...heyyy nowwww
First Solo
 
 ----------

Acoustic steel string 1 strums these chords
G C G C G C G C G C (until verse starts)
Acoustic steel string 2 picks.
Slide guitar cuts in at the end of the picking then back to the verse.
Verse 2
 
 -------

[C]Runnin wild out on the Ro[G]ad
[C]Just like a leaf on the w[G]ind
[C]How in the world could [Em]you ever kn[G]ow
[C]We'd ever m[G]eet aga[D]in
[C]Seven turns on a Hi[G]ghway
[C]Seven rivers to c[G]ross
[C]Sometimes you feel like y[Em]ou could fly a[G]way
[C]Sometimes y[G]ou get [D]lost
Chours (x2)
 
 ------

G C* D
Somebody's callin your name
G C* D
Somebody's waitin for you
C* Em* Am* G*
Love is all that remains the same
Em* C* D
That's what it's all coming to...
Final Solo
 
 ----------

Acoustic steel string 1 strums these chords
G C G C G C G C G C (until chours starts again)
Slide guitar
Chours Continuation
 
 -------------------

(Second Voice is a deep bluesy voice)
G C* D
Somebody's callin your name...(second voice - Somebody's callin your name)
G C* D
Somebody is waiting for you...(second voice - Somebody's waitin for...)
G C* D
Somebody's callin your name...(second voice - somebody's callin your name)
Em C* D
That's what it's all comin to....
G C* D
Somebody's callin your name...(second voice - Somebody's callin your name)
G C* D
Somebody is waiting for you...(second voice - uhhhhunhhh waitin for...)
C* Em* Am* G*
Love is all that remains the same...
Em* C* D
That's what it's all comin to....
(Small Silent Pause)
Outro
[-----]  
Acoustic steel string picking
 
 |------------------------------------2--0-----------|--S--------------|
 |---------------------------------3--------3--------|----L------------|
 |------------------------0-----2--------------2--0--|------I----------|
 |-----------0---------2-----0-----------------------|--------D--------|
 |--------2----2----3--------------------------------|----------E------|
 |-----3---------------------------------------------|-----------------|

Slide guitar (As indicated above)

Important: The song above is NOT stored on the Chordie server. The original song is hosted at www.azchords.com. Chordie works as a search engine and provides on-the-fly formatting. Chordie does not index songs against artists'/composers' will. To remove this song please click here.

Text color:
Chord color:
Chord grids: 
Font size:    
Page size: 

C D Em G
Rate #1 of 8 versions

Jango Player

Login - add to songbook

SHARE PAGE  



You need to log in to post comments