Guitar Tabs, Chords and Lyrics
Server problems seems to be fixed. Chordie has been experiencing problems with songs disappearing. These issues now seems to be fixed, but still verifying the fix. If you find anything strange, please email admin@chordie.com.


Somewhere in Neverland  All Time Low

[Intro] 
[C] [G] [Am] [F]  
 
 e|----0--------3----0----------0--|
 B|----1--------3----1----------1--|
 G|----0--------0----2----------2--| x1
 D|----2--------0----2----------3--|
 A|----3--------2----0----2-3---3--|
 E|----0----0-1-3----0--------0-0--|

[Verse] 
 
 e|---0--------3----0----------0-----0-0-0-0--------3----0----------0-----0-0-0-0-|
 B|---1--------3----1----------1-----1-1-1-1--------3----1----------1-----1-1-1-1-|
 G|---0--------0----2----------2-----0-0-0-0--------0----2----------2-----0-0-0-0-|
 D|---2--------0----2----------3-----2-2-2-2--------0----2----------3-----2-2-2-2-|
 A|---3--------2----0----2-3---3-----3-3-3-3--------2----0----2-3---3-----3-3-3-3-|
 E|---0----0-1-3----0--------0-0-----0-0-0-0----0-1-3----0--------0-0-----0-0-0-0-|
 e|---0--0--------3--3---3-3-3-3-0--0--------0--0--0-0-0-0-|-0--0--------3--3---3-3-3-3-0--0----------|
 B|---1--1--------3--3---3-3-3-3-1--1--------1--1--1-1-1-1-|-1--1--------3--3---3-3-3-3-1--1----------|
 G|---0--0--------0--0---0-0-0-0-2--2--------2--2--0-0-0-0-|-0--0--------0--0---0-0-0-0-2--2----------|
 D|---2--2--------0--0---0-0-0-0-2--2--------3--3--2-2-2-2-|-2--2--------0--0---0-0-0-0-2--2----------|
 A|---3--3--------2--2---2-2-2-2-0--0--2-3---3--3--3-3-3-3-|-3--3--------2--2---2-2-2-2-0--0--2-3-----|
 E|---0--0--0-1-2-3--3---3-3-3-3-0--0------0-0--0--0-0-0-0-|-0--0--0-1-2-3--3---3-3-3-3-0--0------0-1-|
 e|-----------|
 B|-----0---1-|
 G|-----------| x7
 D|---3---3---|
 A|-----------|
 E|-----------|

[Cborus] 
 
 e|---0--0--------3--3---3-3-3-3-0--0--------0--0--0-0-0-0-|-0--0--------3--3---3-3-3-3-0--0-----------0-0-0-0|
 B|---1--1--------3--3---3-3-3-3-1--1--------1--1--1-1-1-1-|-1--1--------3--3---3-3-3-3-1--1-----------1-1-1-1|
 G|---0--0--------0--0---0-0-0-0-2--2--------2--2--0-0-0-0-|-0--0--------0--0---0-0-0-0-2--2-----------2-2-2-2|
 D|---2--2--------0--0---0-0-0-0-2--2--------3--3--2-2-2-2-|-2--2--------0--0---0-0-0-0-2--2-----------3-3-3-3|
 A|---3--3--------2--2---2-2-2-2-0--0--2-3---3--3--3-3-3-3-|-3--3--------2--2---2-2-2-2-0--0--2-3------3-3-3-3|
 E|---0--0--0-1-2-3--3---3-3-3-3-0--0------0-0--0--0-0-0-0-|-0--0--0-1-2-3--3---3-3-3-3-0--0------0-1--0-0-0-0|
 e|---0--0--------3--3---3-3-3-3-0--0--------0--0--0-0-0-0-|-0--0--------3--3---3-3-3-3-0--0----------|
 B|---1--1--------3--3---3-3-3-3-1--1--------1--1--1-1-1-1-|-1--1--------3--3---3-3-3-3-1--1----------|
 G|---0--0--------0--0---0-0-0-0-2--2--------2--2--0-0-0-0-|-0--0--------0--0---0-0-0-0-2--2----------|
 D|---2--2--------0--0---0-0-0-0-2--2--------3--3--2-2-2-2-|-2--2--------0--0---0-0-0-0-2--2----------|
 A|---3--3--------2--2---2-2-2-2-0--0--2-3---3--3--3-3-3-3-|-3--3--------2--2---2-2-2-2-0--0--2-3-----|
 E|---0--0--0-1-2-3--3---3-3-3-3-0--0------0-0--0--0-0-0-0-|-0--0--0-1-2-3--3---3-3-3-3-0--0------0-1-|

[Verse] 
 
 e|---0--------3----0----------0-----0-0-0-0--------3----0----------0-----0-0-0-0-|
 B|---1--------3----1----------1-----1-1-1-1--------3----1----------1-----1-1-1-1-|
 G|---0--------0----2----------2-----0-0-0-0--------0----2----------2-----0-0-0-0-|
 D|---2--------0----2----------3-----2-2-2-2--------0----2----------3-----2-2-2-2-|
 A|---3--------2----0----2-3---3-----3-3-3-3--------2----0----2-3---3-----3-3-3-3-|
 E|---0----0-1-3----0--------0-0-----0-0-0-0----0-1-3----0--------0-0-----0-0-0-0-|
 e|---0--0--------3--3---3-3-3-3-0--0--------0--0--0-0-0-0-|-0--0--------3--3---3-3-3-3-0--0----------|
 B|---1--1--------3--3---3-3-3-3-1--1--------1--1--1-1-1-1-|-1--1--------3--3---3-3-3-3-1--1----------|
 G|---0--0--------0--0---0-0-0-0-2--2--------2--2--0-0-0-0-|-0--0--------0--0---0-0-0-0-2--2----------|
 D|---2--2--------0--0---0-0-0-0-2--2--------3--3--2-2-2-2-|-2--2--------0--0---0-0-0-0-2--2----------|
 A|---3--3--------2--2---2-2-2-2-0--0--2-3---3--3--3-3-3-3-|-3--3--------2--2---2-2-2-2-0--0--2-3-----|
 E|---0--0--0-1-2-3--3---3-3-3-3-0--0------0-0--0--0-0-0-0-|-0--0--0-1-2-3--3---3-3-3-3-0--0------0-1-|
 e|-----------|
 B|-----0---1-|
 G|-----------| x7
 D|---3---3---|
 A|-----------|
 E|-----------|

[Cborus] 
 
 e|---0--0--------3--3---3-3-3-3-0--0--------0--0--0-0-0-0-|-0--0--------3--3---3-3-3-3-0--0-----------0-0-0-0|
 B|---1--1--------3--3---3-3-3-3-1--1--------1--1--1-1-1-1-|-1--1--------3--3---3-3-3-3-1--1-----------1-1-1-1|
 G|---0--0--------0--0---0-0-0-0-2--2--------2--2--0-0-0-0-|-0--0--------0--0---0-0-0-0-2--2-----------2-2-2-2|
 D|---2--2--------0--0---0-0-0-0-2--2--------3--3--2-2-2-2-|-2--2--------0--0---0-0-0-0-2--2-----------3-3-3-3|
 A|---3--3--------2--2---2-2-2-2-0--0--2-3---3--3--3-3-3-3-|-3--3--------2--2---2-2-2-2-0--0--2-3------3-3-3-3|
 E|---0--0--0-1-2-3--3---3-3-3-3-0--0------0-0--0--0-0-0-0-|-0--0--0-1-2-3--3---3-3-3-3-0--0------0-1--0-0-0-0|
 e|---0--0--------3--3---3-3-3-3-0--0--------0--0--0-0-0-0-|-0--0--------3--3---3-3-3-3-0--0----------|
 B|---1--1--------3--3---3-3-3-3-1--1--------1--1--1-1-1-1-|-1--1--------3--3---3-3-3-3-1--1----------|
 G|---0--0--------0--0---0-0-0-0-2--2--------2--2--0-0-0-0-|-0--0--------0--0---0-0-0-0-2--2----------|
 D|---2--2--------0--0---0-0-0-0-2--2--------3--3--2-2-2-2-|-2--2--------0--0---0-0-0-0-2--2----------|
 A|---3--3--------2--2---2-2-2-2-0--0--2-3---3--3--3-3-3-3-|-3--3--------2--2---2-2-2-2-0--0--2-3-----|
 E|---0--0--0-1-2-3--3---3-3-3-3-0--0------0-0--0--0-0-0-0-|-0--0--0-1-2-3--3---3-3-3-3-0--0------0-1-|

[Bridge] 
(Palm mute these chords)
[C] [G] [Am] [F]  
 
 e|---0-0-0-0-0-0-0-0-3-3-3-3-3-3-3-3-0-0-0-0-0-0-0-0-0-0-0-0-0-0-0-0|
 B|---1-1-1-1-1-1-1-1-3-3-3-3-3-3-3-3-1-1-1-1-1-1-1-1-1-1-1-1-1-1-1-1|
 G|---0-0-0-0-0-0-0-0-0-0-0-0-0-0-0-0-2-2-2-2-2-2-2-2-2-2-2-2-2-2-2-2|
 D|---2-2-2-2-2-2-2-2-0-0-0-0-0-0-0-0-2-2-2-2-2-2-2-2-3-3-3-3-3-3-3-3|
 A|---3-3-3-3-3-3-3-3-2-2-2-2-2-2-2-2-0-0-0-0-0-0-0-0-3-3-3-3-3-3-3-3|
 E|---0-0-0-0-0-0-0-0-3-3-3-3-3-3-3-3-0-0-0-0-0-0-0-0-0-0-0-0-0-0-0-0|
 e|-----------|
 B|-----0---1-|
 G|-----------| x7
 D|---3---3---|
 A|-----------|
 E|-----------|

[Cborus/Outro] 
 
 e|---0--0--------3--3---3-3-3-3-0--0--------0--0--0-0-0-0-|-0--0--------3--3---3-3-3-3-0--0-----------0-0-0-0|
 B|---1--1--------3--3---3-3-3-3-1--1--------1--1--1-1-1-1-|-1--1--------3--3---3-3-3-3-1--1-----------1-1-1-1|
 G|---0--0--------0--0---0-0-0-0-2--2--------2--2--0-0-0-0-|-0--0--------0--0---0-0-0-0-2--2-----------2-2-2-2|
 D|---2--2--------0--0---0-0-0-0-2--2--------3--3--2-2-2-2-|-2--2--------0--0---0-0-0-0-2--2-----------3-3-3-3|
 A|---3--3--------2--2---2-2-2-2-0--0--2-3---3--3--3-3-3-3-|-3--3--------2--2---2-2-2-2-0--0--2-3------3-3-3-3|
 E|---0--0--0-1-2-3--3---3-3-3-3-0--0------0-0--0--0-0-0-0-|-0--0--0-1-2-3--3---3-3-3-3-0--0------0-1--0-0-0-0|
 e|---0--0--------3--3---3-3-3-3-0--0--------0--0--0-0-0-0-|-0--0--------3--3---3-3-3-3-0--0----------|
 B|---1--1--------3--3---3-3-3-3-1--1--------1--1--1-1-1-1-|-1--1--------3--3---3-3-3-3-1--1----------|
 G|---0--0--------0--0---0-0-0-0-2--2--------2--2--0-0-0-0-|-0--0--------0--0---0-0-0-0-2--2----------|
 D|---2--2--------0--0---0-0-0-0-2--2--------3--3--2-2-2-2-|-2--2--------0--0---0-0-0-0-2--2----------|
 A|---3--3--------2--2---2-2-2-2-0--0--2-3---3--3--3-3-3-3-|-3--3--------2--2---2-2-2-2-0--0--2-3-----|
 E|---0--0--0-1-2-3--3---3-3-3-3-0--0------0-0--0--0-0-0-0-|-0--0--0-1-2-3--3---3-3-3-3-0--0------0-1-| 


Important: The song above is NOT stored on the Chordie server. The original song is hosted at www.azchords.com. Chordie works as a search engine and provides on-the-fly formatting. Chordie does not index songs against artists'/composers' will. To remove this song please click here.

Text color:
Chord color:
Chord grids: 
Font size:    
Page size: 

Am C F G
Rate #2 of 12 versions

Login - add to songbook

SHARE PAGE  




You need to log in to post comments