Guitar Tabs, Chords and Lyrics
Update 25:10. 13:00. Site is back up running again. Songbooks are recovered. Woring on getting search back up..


Come to Life   Alter Bridge

 
 C |------------------------------------|------------------------------------|
 G |------------------------------------|------------------------------------|
 D#|------------------------------------|------------------------------------|
 A#|--------12-10--13-12--10-----13-12--|--------12-10--13-12--10------------|
 F |------------------------------------|------------------------------------|
 A#|--0--0-------------------13---------|--0--0-------------------13--12brb--|

 


 (fast 1/2 step band and release)


 


 

 
 C |------------------------------------|------------------------------------|
 G |------------------------------------|------------------------------------|
 D#|------------------------------------|------------------------------------|
 A#|--------12-10--13-12--10-----13-12--|--------12-10--13-12~~--------------|
 F |------------------------------------|------------------------------------|
 A#|--0--0-------------------13---------|--0--0------------------------------|

 


 


 [Main Riff] 


 

 
 C |-------------------------------|--------------------------------|
 G |-------------------------------|--------------------------------|
 D#|-------------------------------|--------------------------------|
 A#|-------------------------------|--------------------------------|
 F |-------------------------0-3-5-|--------------------------0-3-5-|
 A#|--0--0--12-0--13-0--1-0--------|--0--0--12-0--13-0--1-0-0-------|

 


 * * *


 


 

 
 C |---------------------------------|-----------------------------|
 G |---------------------------------|--3----3---3-----------------|
 D#|---------------------------------|--3----3---3-----------------|
 A#|---------------------------------|--3----3---3-----------------|
 F |---------------------------0-3---|--1----1---1-----------------|
 A#|--0-0-0--12-0--13-0--1-0-1-------|-------------0-0-5~---3!~----|

 


 * * * * *


 


 [Verse Riff] 


 

 
 C |--------------------------------|--------------------------------|
 G |--------------------------------|--------------------------------|
 D#|--------------------------------|--------------------------------|
 A#|--------------------------------|--------------------------------|
 F |----------------------------3-5-|----------------------------3-5-|
 A#|--0--0--12-0--13-0--1-0-1-0-----|--0--0--12-0--13-0--1-0-1-0-----|

 


 * * * * * * * * * * * * * * * * * * * *


 


 

 
 C |---------------------------------|-----------------------------|
 G |---------------------------------|--3----3---3-----------------|
 D#|---------------------------------|--3----3---3-----------------|
 A#|---------------------------------|--3----3---3-----------------|
 F |---------------------------0-3---|--1----1---1-----------------|
 A#|--0-0-0--12-0--13-0--1-0-1-------|-------------0-0-5~---3!~----|

 


 * * * * * * * * * * *


 


 [Pre-Cborus] 


 (With Wah-Wah)


 

 
 C |-----------------------------------------------------------------|
 G |-----------------------------------------------------------------|
 D#|--11----11----11-12-12--12--12-12-15----15-15----15-----14~------|
 A#|-----------------------------------------------------------------|
 F |--9-----9-----9--10-10--10--10-10-13----13-13----13-0-x-12~------|
 A#|----------------------------------------------------0-x----------|

 


 


 [Cborus] 


 (Strum These Chords)


 

 
 C |-(5)------------------------------------|-------------------|
 G |--3---------------(6)----(5)----(11)----|-------------------|
 D#|--2----------------5------5-------------|-------------------|
 A#|--0----------------5------5------8------|--0-0-3---3-3-0-0--|
 F |--0----------------3------3------8------|--0-0-3---3-3-0-0--|
 A#|--0------------------------------8------|--0-0-3---3-3-0-0--|
 C |-(5)------------------------------------|---------------------|
 G |--3---------------(6)----(5)----(11)----|---------------------|
 D#|--2----------------5------5-------------|---------------------|
 A#|--0----------------5------5------8------|---------------------|
 F |--0----------------3------3------8------|---------------------|
 A#|--0------------------------------8------|--0-6-3-0---0-5-2~---|

 


 


 [Barmony] 


 (Only "Guitar 1" Play The Low String)


 


 Guitar 1:


 

 
 C |---------------------------------------------------|
 G |---------------------------------------------------|
 D#|---------------------------------------------------|
 A#|--------12-10-----8-10----------8-7-----5-7--3~----|
 F |---------------------------------------------------|
 A#|--0--0---------0----------0--0-------0-------------|

 


 


 Guitar 2:


 

 
 C |----------------------------------------------------|
 G |--------15-13-----11-13--------11-10-----8-10--6----|
 D#|----------------------------------------------------|
 A#|----------------------------------------------------|
 F |----------------------------------------------------|
 A#|--0--0---------0---------0--0---------0-------------|

 


 


 Guitar 3:


 

 
 C |------------------------------------------------------|
 G |--------18-17-----15-17--------15-13-----11-13--10----|
 D#|------------------------------------------------------|
 A#|------------------------------------------------------|
 F |------------------------------------------------------|
 A#|--0--0---------0---------0--0---------0---------------|

 


 


 Guitar 4:


 

 
 C |--------18-17-----15-17--------15-13-----12-13--10----|
 G |------------------------------------------------------|
 D#|------------------------------------------------------|
 A#|------------------------------------------------------|
 F |------------------------------------------------------|
 A#|--0--0---------0---------0--0---------0---------------|

 


 


 [Solo] 


 

 
 (Eb TUNING!) |----------Fast Part----------|
 C |-----------------------14brb-------------10h14p10----10---------------//17~~\\----17brb--15--|
 G |--10----------10-14-15-------15-17-14-15----------14----14-10-14-10--------------------------|
 D#|--9b~---------------------------------------------------------------11-----------------------|
 A#|---------------------------------------------------------------------------------------------|
 F |---------------------------------------------------------------------------------------------|
 A#|---------------------------------------------------------------------------------------------|

 


 (The First Band Goes Up Slowly To 2.5 Steps)


 


 [Fast Lick] 


 

 
 |---------Mostly Hammer-Ons, Pull-Offs, and Slides---------|
 C |--14--14-17-15-14---------------------------------------------------------------|
 G |------------------17-15-14-15-17-15-14-12--14-15-14-12-10-8-7-10-8-7------------|
 D#|----------------------------------------------------------------------10--7~----|
 A#|--------------------------------------------------------------------------------|
 F |--------------------------------------------------------------------------------|
 A#|--------------------------------------------------------------------------------|
 C |------------------------------------------------------------------------------------------------17brb~~|
 G |-----------------/14---15-17---14-15-17---14-15-17---14-15-17--15--14--15--14h15p14-17-15-14-----------|
 D#|--7-6-7-9-6~~------------------------------------------------------------------------------------------|
 A#|-------------------------------------------------------------------------------------------------------|
 F |-------------------------------------------------------------------------------------------------------|
 A#|-------------------------------------------------------------------------------------------------------|

 


 


 [Fast Lick 2] 


 

 
 C |-------------------------------12----12-14h15p14----14-15-17-19h21p19----19-21-22-21b----|
 G |-------------12----12-15-12-15----15-------------17-------------------22-----------------|
 D#|----14-11-14----14-----------------------------------------------------------------------|
 A#|--//-------------------------------------------------------------------------------------|
 F |-----------------------------------------------------------------------------------------|
 A#|-----------------------------------------------------------------------------------------|
 C |--21--21~~----19--21--22--19--21--22--19--21-22b---17----22-17~~~~--|
 G |------------------------------------------------------22------------|
 D#|--------------------------------------------------------------------|
 A#|--------------------------------------------------------------------|
 F |--------------------------------------------------------------------|
 A#|--------------------------------------------------------------------|

 


 


 [Rbytbm For Solo Section] 


 (Drop A# Tuning)


 

 
 C |------------------------------------------------------|
 G |------------------------------------------------------|
 D#|-------------------------------------------------5----|
 A#|--3---3---3--3-3---3-3-x-x-5-5-5-5-5---5-----3---3----|
 F |--3---3---3--3-3---3-3-x-x-3-3-3-3-3---3-0-0-1-0-1----|
 A#|--3---3---3--3-3---3-3-x-x---------------0-0---0------|

 


 * * *


 


 

 
 C |-----------------------------------------------------------|
 G |-----------------------------------------------------------|
 D#|-----------------------------------------------------------|
 A#|---------------------------------------------------3--3-3--|
 F |----6-5-0-3-5---6-5-0-3-5---0-3-5------------------3--3-3--|
 A#|--0-----------0-----------0-------8---7---5--7-3---3--3-3--|

 


 * * * * * *


 


 

 
 C |------------------------------------------------------|
 G |------------------------------------------------------|
 D#|------------------------------------------------------|
 A#|--3---3---3--3-3---3-3-x-x-5-5-5-5-5---5-----3---3----|
 F |--3---3---3--3-3---3-3-x-x-3-3-3-3-3---3-0-0-1-0-1----|
 A#|--3---3---3--3-3---3-3-x-x---------------0-0---0------|

 


 * * *


 


 

 
 |---Very Fast---|
 C |--------------------------------------------------------------------|
 G |--------------------------------------------------------------------|
 D#|--------------------------------------------------------------------|
 A#|--------------------------------------------------------------------|
 F |----6-5-0-3-5---6-5-0-3-5---0-3-5-----------------------------------|
 A#|--0-----------0-----------0-------8---7---5-7-7-3--3-3-3-3-3-3-3-3--|

 


 * * * * * * * * * * * * * *


 


 (Fade Into Break Part)


 

 
 C |---------------------------------------------|-----|
 G |---------------------------5----5-5---6-5----|-----|
 D#|---------------------------5----5-5---5-5----|-----|
 A#|--3---3---3--3-3---3-3-x-x-5----5-5---5-5----|-----|
 F |--3---3---3--3-3---3-3-x-x-3----3-3---3-3----|-----|
 A#|--3---3---3--3-3---3-3-x-x-------------------|0----|

 


 


 [Break] 


 (Back To Drop A# Tuning)


 Clean:


 

 
 C |----------------------------------------|
 G |----------------------------------------|
 D#|--11---11---12---12---15--15---14---14--|
 A#|----------------------------------------|
 F |--9----9----10---10---13--13---12---12--|
 A#|----------------------------------------|
 C |----------------------------------------------------------------------|
 G |----------------------------------------------------------------------|
 D#|--14----14---14-14-14-14--14-14-12-12----12---12-12-12-12-12-12-14-11-|
 A#|----------------------------------------------------------------------|
 F |--12----12---12-12-12-12--12-12-10-10----10---10-10-10-10-10-10/12\9--|
 A#|----------------------------------------------------------------------|
 C |-----------------------------------------------------------------------------------------|
 G |-----------------------------------------------------------------------------------------|
 D#|--11---11-11-11-12----12-12-12-12-12-x-x-15--x-17--x-x-14---14-14-14-15\14-14-14-14--14--|
 A#|-----------------------------------------------------------------------------------------|
 F |--9----9--9--9--10----10-10-10-10-10-x-x-13--x-15--x-x-12---12-12-12-13\12-12-12-12--12--|
 A#|-----------------------------------------------------------------------------------------|

 


 


 Back To Distortion:


 

 
 C |-------------------------|
 G |-------------------------|
 D#|-------------------------|
 A#|-------------------------|
 F |-----------------0-------|
 A#|--0-0-8~--7~--5----3mb---|

 


 . .


 


 [Outro Riff] 


 

 
 C |-------------------------------|--------------------------------|---------------------------------|
 G |-------------------------------|--------------------------------|---------------------------------|
 D#|-------------------------------|--------------------------------|---------------------------------|
 A#|-------------------------------|--------------------------------|---------------------------------|
 F |-------------------------0-3-5-|--------------------------0-3-5-|---------------------------0-3-5-|
 A#|--0--0--12-0--13-0--1-0--------|-----0--12-0--13-0--1-0-0-------|--0-0-0--12-0--13-0--1-0---------|

 


 * * * * *


 


 (Let Ring)


 

 
 C |----------------------------------|----------------------------------|-----------|
 G |----------------------------------|----------------------------------|-----------|
 D#|----------------------------------|----------------------------------|-----------|
 A#|----------------------------------|----------------------------------|-----------|
 F |--------0-3-5-------0-3-5---0-3-5-|--------0-3-5-------0-3-5---0-3-5-|-----------|
 A#|--0-1-0-------0-1-0-------0-------|--0-1-0-------0-1-0-------0-------|--0--------|


Important: The song above is NOT stored on the Chordie server. The original song is hosted at www.azchords.com. Chordie works as a search engine and provides on-the-fly formatting. Chordie does not index songs against artists'/composers' will. To remove this song please click here.

This song is displayed as text-only. Transposing and tuning is only available for chordpro-songs.
Rate #2 of 2 versions

Jango Player

Login - add to songbook

SHARE PAGE  



You need to log in to post comments