Guitar Tabs, Chords and Lyrics
Update 25:10. 13:00. Site is back up running again. Songbooks are recovered. Woring on getting search back up..


Ghost of Days Gone By   Alter Bridge

 
 ----------------------------------------------------------------------------
 ----------------------------------------------------------------------------

 


 


 Tuning: Open d5 down half a step (Db Db Ab Db Ab Db)


 


 I didn't tab out what Myles plays, cuz the other tab has that for you.


 


 Intro/Verse


 


 

 
 D|-------------------------------------------------------------------------|
 D|0h2-4-2-0-------0---------------0-----------------------------2p0-0------|
 A|----------5\4-----4---------------0-4-----------5-2-4-----2h4-----------0|
 D|----------------------4-------4-----2---------2---------2----------------|
 A|----------2---2-----2---2-2-2-------0-0-0-0-0---0-0-0-0------------------|
 D|0---0-0-0---------------------------------------------------------5-5-5--|

 


 The misery... friend... creeping


 


 

 
 |-------------------------------------------------------------|--|
 |----------------------------------------------0---12---------|--|
 |-----------------------------------------9/10-----9----------|--|
 |-------0-------------0-4\2-0---------------------------------|--|
 |-----------------------------------------9/10-----9----------|--|
 |-5-5-5---5-5-5-5-5-----------0-0-0-0-0-0--------0----0-0-0-0-|0-|

 


 again... only played first


 two times


 


 then he slides into the chorus, you can figure out the strum pattern


 


 

 
 |-----------0-------0----------0------0--------0-----------|
 |-----------0-------0----------0------0--------0-----------|
 |-----------0-------0----------4------4--------0----0------|
 |---------7-7-----5-5----------4------2------7-7----5------|
 |-\-------5-5-----2-2----------2------0------5-5----2------|
 |-\-------5-5-----2-2------------------------5-5----2------|

 


 Do you feel... once...yesterday...againâ?¦ ever...ghost...


 


 intro/verse 3 times again, followed by the chorus, then


 


 ^upstroke


 |-0-|


 |-0-|


 |-0-|


 |-0-|


 |-0-|


 |-0-|


 


 Bridge


 

 
 |---------------------------------------|
 |---------------------------------------|
 |-------------------------------------0-|
 |-8-----------------------------------0-|
 |-x-------------------3-----5-----1-1-0-|
 |-8-4-4-4-4-4-4-4-0-3---0-4---1-0-1-1-0-| x2

 


 [+] [+] [+] [+] [+] [+] [+] [+] [+] [+] [+] [+] [+] [+] [+] 


 


 

 
 |---------------------------------|
 |---------------------------------|
 |---------------------------------|
 |-8-------------------------------|
 |-x-------------------3-----5-----|
 |-8-4-4-4-4-4-4-4-0-3---0-4---1-0-| x3

 


 [+] [+] [+] [+] [+] [+] [+] [+] [+] [+] [+]  


 


 

 
 |----------------------------|
 |-------------------------5*-|
 |-------------------------5*-|
 |-8--------------------------|
 |-x-------------------3------|
 |-8-4-4-4-4-4-4-4-0-3---3----| x1

 


 [+] [+] [+] [+] [+] [+] [+] [+] [+] [+]  


 


 

 
 |---------0--0-----0-----------|
 |---------0--0-----0-----------|
 |---------x--x-----x-0---------|
 |-8-4-----4--4-----3-0---4-1-0-|
 |-8-4-4-4-4--4-0-0-3-0-0-4-1-0-|
 |-8-4-4-4-4--4-0-0-3-0-0-4-1-0-| x4

 


 [+] [+] [+] [+] [+]  


 


 Solo (rythm plays chorus chords)


 


 

 
 |-----------------------------------------0-0--0---0--0--0--0--0--0-------|
 |---------0---0--0--0--0--0-0-----0-------0-0-/12--12-12-12-11-12-12/17-17|
 |--------/12--12-12-12-10-9-9/10--10/12~----------------------------------|
 |-------------------------------------------------------------------------|
 |-------------------------------------------------------------------------|
 |-------------------------------------------------------------------------|
 |-0---0-----------0-----------------------------------------------------|
 |-17--16b17rb16~--0------------12--------12--------12-16-14-12----------|
 |------------------------16--------16--------16----------------16-14-12-|
 |-----------------------------------------------------------------------|
 |---------------------14----14--------14--------14----------------------|
 |-----------------------------------------------------------------------|
 |--------------------------------------------|
 |-----------12--------11---------14~--14/16~-|
 |-----0---------0---------0------------------|
 |--------------------------------------------|
 |-12-----12--------12--------12--------------|
 |--------------------------------------------|

 


 


 Chorus


 


 Outro


 

 
 |---------0--0-----0-----------|
 |---------0--0-----0-----------|
 |---------x--x-----x-0---------|
 |-8-4-----4--4-----3-0---4-1-0-|
 |-8-4-4-4-4--4-0-0-3-0-0-4-1-0-|
 |-8-4-4-4-4--4-0-0-3-0-0-4-1-0-| x8


Important: The song above is NOT stored on the Chordie server. The original song is hosted at www.azchords.com. Chordie works as a search engine and provides on-the-fly formatting. Chordie does not index songs against artists'/composers' will. To remove this song please click here.

This song is displayed as text-only. Transposing and tuning is only available for chordpro-songs.
Rate #5 of 5 versions

Login - add to songbook

SHARE PAGE  



You need to log in to post comments