Guitar Tabs, Chords and Lyrics
Update 25:10. 13:00. Site is back up running again. Songbooks are recovered. Woring on getting search back up..


Rise Today  Alter Bridge

Rise Today - Alter Bridge
First single from the album Blackbird released Oct 9,07.
Okay.. so I did a few corrections to this tab after seeing a few different
live vids and getting the album(frickin awesome CD!!!), and it should be
more accurate than my old one, especially the solo.
Tuning:Drop D
4/4 time
Intro
Gtr2(Myles)(clean) w/ wah
 
 e|-----------------------------------------------------------------|
 B|-------3-------3-------3-------3-------3-------0-----------------|
 G|-----2-------2-------2-------2-------2-------2-------0-------0---|fig 1
 D|---0-------0-------0-------0-------0-------0-------0---0---0---0-|
 A|---------------------------------3-------3-----------------------|
 D|-0-------0-------3-------3----------------------/5-------3-------|

Gtr1(Mark)
 
 e|-------0-------0-------0-------0-------0-------0-------0-------0-|
 B|-----15------15------15------15------15------15------15------15--|
 G|---14------14------14------14------17------17------14------14----|fig 2
 D|-14------14------15------15------14------14------15------15------|
 A|-----------------------------------------------------------------|
 D|-----------------------------------------------------------------|

Gtr2
 
 e|-----------------------------------------------------------------|
 B|-------3-------3-------3-------3-------3-------0-----------------|
 G|-----2-------2-------2-------2-------2-------2-------0-------0---|(fig 1)
 D|---0-------0-------0-------0-------0-------0-------0---0---0---0-|
 A|---------------------------------3-------3-----------------------|
 D|-0-------0-------3-------3----------------------/5-------3-------|

_______
Verse 1|
_______|
(gtr2 w/ fig 1)x4
(gtr1 w/ fig 2)x4
"The wind is blowing cold. Have we lost our way tonite
Have we lost our hope to sorrow
Feels like we're all alone, Running further from what's right
and There are no more heroes to follow"
Prechorus
"So what are we becoming" "Where did we go wrong"
Gtr1 (dist.) vol swell<<<<<<<<
 
 e|-----------------------------------------------------------------|
 B|-6-------------------------------8-------------------------------|
 G|-5-------------------------------7-------------------------------|
 D|-3-------------------------------5-----------------------x*12----|
 A|-3-------------------------------5-----------------------x*12----|
 D|-3-------------------------------5-----------------------x-------|

Gtr2
 
 e|-------3---------------------------------------------------------|
 B|-6---------6---------------------8-------------------------------|
 G|-5---------------5---------------7-------------------------------|
 D|-3-------------------------------5-------------------------------|
 A|-3-------------------------------5-------------------------------|
 D|-3-------------------------------5-------------------------------|

______
CHORUS|
______|
Fills here are **optional for one of the guitars as they play unison for most of it.
Anything that sounds different from the regular chords here is probably filled by a
guitar on the studio version
"Yeah" "oh Yeah" "I wanna
Gtr1(dist)
 
 e|-----------------------------------------------------------------|
 B|.7*------7-----7-7-7-7-------------------------5-5---------------|
 G|-7-------7-----7-7-7-7-----------5-----5-5-----5-5-9-9-9-9-9-7\5-|
 D|-0-------0-----0-0-0-0-----0-0-0-5-----5-5-----5-5-x-x-x-x-x-x---|
 A|.0-------0-----0-0-0-0-----0-0-0-3-----3-3-----3-3-7-7-7-7-7-5\3-|
 D|-0-------0-----0-0-0-0-----0-0-0---------------------------------|

Gtr2(dist) **optional Fill 1 2nd time**
 
 e|-0-------0-----0-0-0-0-----0-0-0-3-----3-3-----------------------|
 B|.3-------3-----3-3-3-3-----3-3-3-3-----3-3-----5-5-5-5-----------|
 G|-2-------2-----2-2-2-2-----2-2-2-5-----5-5-----5-5-5-5-----5-5---|
 D|-0-------0-----0-0-0-0-----0-0-0-5-----5-5-----5-5-5-5-----5-5-0-|
 A|.0-------0-----0-0-0-0-----0-0-0-3-----3-3-----3-3-3-3-----3-3-0-|
 D|-0-------0-----0-0-0-0-----0-0-0-------------------------------0-|

*i noticed he played his D chord **Fill 1**
 
 differently for time to time e|-------------------|
 but it doesn't really matter B|-------------------|

here for the sound since it's distorted. G|-9-9-10101010109\7-|
 
 Where it does matter is during the D|-x-x-x-x-x-x-x-x---|
 clean chorus A|-7-7-8-8-8-8-8-7\5-|
 D|-------------------|

rise today and change this world"
________________________________
Gtr1 1. |
 
 e|--------------------------------|5-----5-5-5-0-----0-0-0-0-------|
 B|-6-----6-----3-----3-3-3-3-3----|8-----8-8-7-7-----7-7-7-7------.|
 G|-5-----5-----4-----4-4-4-4-4----|7-----7-7-7-7-----7-7-7-7-------|
 D|-3-----3-0-0-5-----5-5-5-5-5-0-0|5-----5-5-5-0-----0-0-0-0---0-0-|
 A|-3-----3-0-0-2-----2-2-2-2-2-0-0|5-----5-5-5-0-----0-0-0-0---0-0.|
 D|-3-----3-0-0-----------------0-0|5-----5-5-5-0-----0-0-0-0---0-0-|

Gtr2
 
 e|--------------------------------|--------------------------------|
 B|-6-----6-----3-----3-3-3-3-3----|8-----8-8-8-7-----7-7-7-7---7-7.|
 G|-5-----5-----4-----4-4-4-4-4----|7-----7-7-7-7-----7-7-7-7---7-7-|
 D|-3-----3-0-0-5-----5-5-5-5-5-0-0|5-----5-5-5-0-----0-0-0-0---0-0-|
 A|-3-----3-0-0-2-----2-2-2-2-2-0-0|5-----5-5-5-0-----0-0-0-0---0-0.|
 D|-3-----3-0-0-----------------0-0|5-----5-5-5-0-----0-0-0-0---0-0-|

______________________________
Gtr1 2. |
 
 "Yeah... Oh..Yeah e|--------------------------------|
 Oh won't you rise today B|-8-----8-8-8--------------------|
 and change this world" G|-7-----7-7-7-7------------------|
 D|-5-----5-5-5-0------------------|
 A|-5-----5-5-5-0------------------|
 D|-5-----5-5-5-0------------------|

Gtr2
 
 e|-5-----5-5-5-0------------------|
 B|-8-----8-8-8-5------------------|
 G|-7-----7-7-7-7------------------|
 D|-5-----5-5-5-0------------------|
 A|-5-----5-5-5-0------------------|
 D|-5-----5-5-5-0------------------|

________
Preverse|
________|
Gtr1
 
 e|-------0-------0-------0-------0-------0-------0-------0-------0-|
 B|-----15------15------15------15------15------15------15------15--|
 G|---14------14------14------14------14------14------14------14----|
 D|-0-------0-------0-------0-------0-------0-------0-------0-------|
 A|-----------------------------------------------------------------|
 D|-----------------------------------------------------------------|

Gtr2 Myles with slide from nut to bridge
 
 e|-----------------------------------------------------------------|
 B|(5)--------------------------------------------------------------|
 G|(7)--------------------------------------------------------------|
 D|--------------------------------x/////////////////////////////\\\|
 A|--------------------------------x/////////////////////////////\\\|
 D|-----------------------------------------------------------------|

_______
Verse 2|
_______|
"The sun is beatin down. Are we ever gonna change
Can we stop the blood from runnin"
Gtr1&2(dist) PM..|
 
 e|-----------------------------------------------------------------|
 B|-----------------------------------------------------------------|
 G|-2-------2-----2-----5---5-5-5-5-5---5-5-5---5-5-5-7-7---7-7-7-7-|
 D|-0-------0-----0-----3---3-3-3-3-5---5-5-5---5-5-5-5-5---5-5-5-5-|
 A|-0-------0-----0-0-0-3---3-3-3-3-3---3-3-3---3-3-3-5-5---5-5-5-5-|
 D|-0-------0-----0-0-0-3---3-3-3-3-------------------5-5---5-5-5-5-|

Gtr1 PM.| PM PM
 
 e|-------------------------------------------------V-------V-------|
 B|-----------------------------------------------------------------|
 G|-2-------2---------5-----5-------5-------5-5---5-7-7---7-7-5-----|
 D|-0-------0---------3-----3-------5-------5-5---5-0-5---5-5-3-----|
 A|-0-------0-----0-0-3-----3-------3-------3-3---3-0-5---5-5-3-----|
 D|-0-------0-----0-0-3-----3-----------------------0-5---5-5-3-----|

Gtr2
 
 e|-------------------------------------------------------------------------|
 B|-----------------------10b13--10-----------------------------------------|
 G|pb14b12bbbbbb14~~~~~~~~---------13-12-10-12-13b12p10-12-10--10b11--------|
 D|----------------------------------------------------------12-----12~~~~\-|
 A|-------------------------------------------------------------------------|
 D|-------------------------------------------------------------------------|

"Our time is running out, Hope we find a better way
Before we're finally left with nothin"
Gtr1&2 PM..|
 
 e|-----------------------------------------------------------------|
 B|-----------------------------------------------------------------|
 G|-2-------2-----2-----5---5-5-5-5-5---5-5-5---5-5-5-7-7-7-7-7-7-7-|
 D|-0-------0-----0-----3---3-3-3-3-5---5-5-5---5-5-5-5-5-5-5-5-5-5-|
 A|-0-------0-----0-0-0-3---3-3-3-3-3---3-3-3---3-3-3-5-5-5-5-5-5-5-|
 D|-0-------0-----0-0-0-3---3-3-3-3-------------------5-5-5-5-5-5-5-|

Gtr1
 
 e|-----------------------------------------------------------------|
 B|-3-------3-------------------------------------------------------|
 G|-2-------2-------x-5-5-5-5-----5-5---5-5-5/9-9-9-x-7-7-7-7-7-7-5-|
 D|-0-------0-----0-x-3-3-3-3-----3-5---5-5-x---x-x-x-x-x-x-x-x-x-x-|
 A|-0-------0-----0-x-3-3-3-3-----3-3---3-3-3/7-7-7-x-5-5-5-5-5-5-3-|
 D|-0-------0-----0---3-3-3-3-----3---------------------------------|

Gtr2
 
 e|-----------------------------------------------------------------|
 B|-3-------3-------------------------------------------------------|
 G|-2-------2-------x-5-5-5-5-----5-5---5-5-5-5---5-5-7-7-7-7-7-7-7-|
 D|-0-------0-----0-x-3-3-3-3-----3-5---5-5-5-5---5-5-5-5-5-5-5-5-5-|
 A|-0-------0-----0-x-3-3-3-3-----3-3---3-3-3-3---3-3-5-5-5-5-5-5-5-|
 D|-0-------0-----0---3-3-3-3-----3-------------------5-5-5-5-5-5-5-|

___________
Prechorus 2|
___________|
"For every life that's taken So much love is wasted"
Gtr1&2
 
 e|---------------------------------5-5---5-5-5-5-5-5-5-5-5-5-x-----|
 B|-6-6---6-6-6---6-6-5-5-5-5-5-5---8-8---8-8-8-8-8-8-7-7-7-7-x-----|
 G|-5-5---5-5-5---5-5-5-5-5-5-5-5/7-7-7---7-7-7-7-7-7-7-7-7-7-x-----|
 D|-3-3---3-3-3---3-3-3-3-3-3-x-x---5-5---5-5-5-5-5-5-5-5-5-5-x-----|
 A|-3-3---3-3-3---3-3-3-3-3-3-3-3/5-5-5---5-5-5-5-5-5-5-5-5-5-x-----|
 D|-3-3---3-3-3---3-3-3-3-3-3-------5-5---5-5-5-5-5-5-5-5-5-5-x-----|

2nd Chorus
"...and chaange.....
Gtr1&2
PM.............................|
 
 e|---------------------------------|
 B|---------------------------------|
 G|---------------------------------|
 D|-5-5-5-5-5-5-5-5-5-555-555-5-5-5-|
 A|-5-5-5-5-5-5-5-5-5-555-555-5-5-5-|
 D|-5-5-5-5-5-5-5-5-5-555-555-5-5-5-|

______
Bridge|
______|
This Worldddd.." "Only love can set it right"
Gtr1
 
 e|-----------------------------------------------------------------|
 B|-----------------------------------------------------------------|
 G|-10--10-/1212\---10--10-/1212\---17----17171716----161616--------|
 D|-8---8---x-x-----8---8---x-x-----x-----x-x-x-x-----x-x-x---------|
 A|-8---8--/1010\---8---8--/1010\---15----15151514----141414--------|
 D|-8---8-----------8---8----------------------------------/17\\\---|

Gtr2
 
 e|-----------------------------------------------------------------|
 B|---------------------------------3-----3-3-3-3-----3-3-3---------|
 G|-10--10-/1212\---10--10-/1212\---5-----5-5-5-4-----4-4-4---------|
 D|-8---8---x-x-----8---8-----------5-----5-5-5-0-----0-0-0---------|
 A|-8---8--/1010\---8---8--/1010\---3-----3-3-3-2-----2-2-2---------|
 D|-8---8-----------8---8----------------------------------/17\\\---|

Gtr1&2
 
 e|------------------------------------------------------------------|
 B|------------------------------------------------------------------|
 G|------------------------------------------------------------------|
 D|---------3-------------------------------3-----3-5-3-3------------|
 A|-----------5~~~----------5-3~~~------------5~~~-----5-5-3-5-3-3---|
 D|-0-6-5-0-------0---6-5-0---------0-6-5-0---------------------5-5-3|

This Worldddd.." "If only peace would never die"
Gtr1
 
 e|-----------------------------------------------------------------|
 B|-----------------------------------------------------------------|
 G|-10--10-/1212\---10--10-/1212\---17----17171716----16161616------|
 D|-8---8---x-x-----8---8---x-x-----x-----x-x-x-x-----x-x-x-x-------|
 A|-8---8--/1010\---8---8--/1010\---15----15151514----14141414------|
 D|-8---8-----------8---8-------------------------------------/17\\-|

Gtr2 *vibrato with slide
 
 e|-----------------------------------------------------------------|
 B|---------------------------------3-----3-3-3-3-3-3-3-------------|
 G|-10--10-/1212\---10--10-/1212\---5-----5-5-4-4-4-4-4--*12//////14|
 D|-10--10--x-x-----8---8-----------5-----5-5-0-0-0-0-0-------------|
 A|-8---8--/1010\---8---8--/1010\---3-----3-3-2-2-2-2-2-------------|
 D|-8---8-----------8---8-------------------------------------------|

Gtr1 (w/ slide) *close to bridge
 
 e|--------------------------------------------------------------------|
 B|-------------13-----13-----13-----14-----14-14/17\15/18////*////////|
 G|(14)~~~~~~~14--13/14--13/14--13/14--13/14---------------------------|
 D|--------------------------------------------------------------------|
 A|--------------------------------------------------------------------|
 D|--------------------------------------------------------------------|
 ---------------|

//x\\\\\\\\----|
--x\\\\\\\\\\--|
 
 ---------------|
 ---------------|
 ---------------|

Gtr2
 
 e|-----------------------------------------------------------------|
 B|-----------------------------------------------------------------|
 G|-------------------7-7-7-x-5-5-5-------------------7-7-7---5-5---|
 D|-------------------x-x-x-x-x-x-x-------------------x-x-x-0-2-2-0-|
 A|---------8-5-------5-5-5-x-3-3-3---------8-5-------5-5-5-0-3-3-0-|
 D|-0-6-5-0-------3-5---------------0-6-5-0-------3-5-------0-----0-|

"It seems to be that we've got each other wrong... was the
Gtr1
 
 e|-----------------------------------------------------------------|
 B|-----------------------------------------------------------------|
 G|-10--10-/1212\---10--10-/1212\--/17----17171716--16161616161616--|
 D|-10--10--x-x-----10--10--x-x-----x-----x-x-x-x---x-x-x-x-x-x-x---|
 A|-8---8--/1010\---8---8--/1010\--/15----15151514--14141414141414--|
 D|-8---8-----------8---8-------------------------------------------|

Gtr2
 
 e|-----------------------------------------------------------------|
 B|---------------------------------3-----3-3-3-3-----3-3-3-3---3-3-|
 G|-10--10-/1212\---10--10-/1212\---5-----5-5-5-4-----4-4-4-4---4-4-|
 D|-10--10--x-x-----10--10--x-x-----5-----5-5-5-0-----0-0-0-0---0-0-|
 A|-8---8--/1010\---8---8--/1010\---3-----3-3-3-2-----2-2-2-2---2-2-|
 D|-8---8-----------8---8-------------------------------------------|

enemy just your brother all along.."
Gtr1
 
 e|-----------------------------------------------------------------|
 B|-----------------------------------------------------------------|
 G|-10--10-/1212\---10--10-/1212\--/17----17171716------------------|
 D|-10--10--x-x-----10--10--x-x-----x-----x-x-x-x-------------------|
 A|-8---8--/1010\---8---8--/1010\--/15----15151514------------------|
 D|-8---8-----------8---8-------------------------------------------|

Gtr2
 
 e|-----------------------------------------------------------------|
 B|---------------------------------3-----3-3-3-3-------------------|
 G|-10--10-/1212\---10--10-/1212\---5-----5-5-5-4-------------------|
 D|-10--10--x-x-----10--10--x-x-----5-----5-5-5-0-------------------|
 A|-8---8--/1010\---8---8--/1010\---3-----3-3-3-2-------------------|
 D|-8---8-----------8---8-------------------------------------------|

_________
3rdChorus|
_________|
There is a third guitar part filling in here also, but i didn't tab that
b/c I'm tabbing this to be played by only 2 guitars
also some of this is played a bit differently live than in the studio version
(Mark plays the 3rd part that I'm talking about live, but it's easy
enough to figure out, so i only put rhythm slashes beneath each line for it)
Gtr1(clean)
 
 e|-0-------0-----0-0-0---0-0-0-0---x-------x-----x-x-0-0---0-0-x-x-|
 B|-7-------7-----7-7-7---7-7-7-7---7-------7-----7-7-8-8---8-8-x-x-|
 G|-7-------7-----7-7-7---7-7-7-7---7-------7-----7-7-9-9---9-9-x-x-|
 D|-0-------0-----0-0-0---0-0-0-0---10------10----10101010--1010x-x-|
 A|---------------------------------10------10----10101010--1010x-x-|
 D|-----------------------------------------------------------------|

Gtr2(tacet)
 
 e|-----------------------------------------------------------------|
 B|-----------------------------------------------------------------|
 G|--(fade out)-----------------------------------------------------|
 D|-----------------------------------------------------------------|
 A|-----------------------------------------------------------------|
 D|-----------------------------------------------------------------|

[G3] [/] [/] [/] [/] [/] [/] [/] [/] 
Gtr1
 
 e|-----------------------------------------------------------------|
 B|-6-----6-x-x-3-----3-3-3-3---3-3-3-3-3-3---3-7---7-7-7-7-7---7-7-|
 G|-5-----5-x-x-4-----4-4-4-4---4-4-5-5-5-4---4-7---7-7-7-7-7---7-7-|
 D|-3-----3-x-x-5-----5-5-5-5---5-5-5-5-5-5---5-0---0-0-0-0-0---0-0-|
 A|-3-----3-x-x-2-----2-2-2-2---2-2-3-3-3-3---3-0---0-0-0-0-0---0-0-|
 D|---------------------------------------------0---0-0-0-0-0---0-0-|

Gtr2 (dist) w/ slide
 
 e|-----------------------------------------------------------------|
 B|-----------------------------------------------------------------|
 G|-----------------------------------------10/12\10\14-\9~~~~~\7~~~|
 D|-----------------------------------------------------------------|
 A|-----------------------------------------------------------------|
 D|-----------------------------------------------------------------|

[G3] [/] [/] [/] [/] [/] [/] [/] [/] [/] 
Gtr1(clean) (dist)
 
 e|---------0-------0-0-------------x-----x-x---0---------0-0---x-x-|
 B|-7-------7-----7-7-7---7-7-7-7---7-----7-7---8---------8-8---x-x-|
 G|-7-------7-----7-7-7---7-7-7-7---7-----7-7---9---------9-9---x-x-|
 D|-0-------0-----0-0-0---0-0-0-0---10----1010--10--------1010--x-x-|
 A|-0-------0-----0-0-0---0-0-0-0---10----1010--10--------1010------|
 D|-0-------0-----0-0-0---0-0-0-0-----------------------------------|

Gtr2(dist) (slide)
 
 e|-----------------------------------------------------------------|
 B|-----------------------------------------------------------------|
 G|~~~~~~~~~~~~~(7)~~~~~~~~~~~~~~~~~~~~~~~~~~~~~~~~~~~~~~~~~--------|
 D|--------------------------------------------------------------\\\|
 A|--------------------------------------------------------------\\\|
 D|-----------------------------------------------------------------|

[G3] [/] [/] [/] [/] [/] [/] [/] [/] [/] [/] 
Gtr1 P.S.
 
 e|---------------------------------5---5-5-5-5-0-0-0-0-0-----------|
 B|-6-----6-6-5-0-----0-0-0-0-0-0-0-8---8-8-8-8-7-7-7-7-7-----------|
 G|-5-----5-5-5-4-----4-4-4-4-4-4-4-7---7-7-7-7-7-7-7-7-7-----------|
 D|-3-----3-3-3-5-----5-5-5-5-5-5-5-5---5-5-5-5-0-0-0-0-0-x\\\------|
 A|-3-----3-3-3-2-----2-2-2-2-2-2-2-5---5-5-5-5-0-0-0-0-0-x-\\\-----|
 D|-3-----3-3-3---------------------5---5-5-5-5-0-0-0-0-0-----/17\\-|

Gtr2
PM........................... Slide
 
 e|-----------------------------------------------------------------|
 B|-------------------------0-0-0-0---------------------------------|
 G|-----------------4-4-4-4-4-4-4-4-7-7-7-7-7-7---------------------|
 D|-3-3-3-3-3-3-5-5-5-5-5-5-5-5-5-5-5-5-5-5-5-5-0-0--\\\\\\\\\\\\\\-|
 A|-3-3-3-3-3-3-2-2-2-2-2-2-2-2-2-2-5-5-5-5-5-5-0-0---\\\\\\\\\\\\\\|
 D|-3-3-3-3-3-3---------------------5-5-5-5-5-5-0-0-----------------|

[G3] [/] [/] [/] [/] [/] [/] [/] [/] [/] [/] [/] [/] [/] [/] [/] [/] [/] [/] [/] [/] [/] [/] [/] [/] [/] [/] [/] 
Last Chorus
____
Solo|
____|
(this part played in last bar of last chorus..)
Gtr1 PH
 
 e|-----------------------------------------------------------------|
 B|-----------------------------------------------------------------|
 G|-----------------------------------------------------------------|
 D|------------------------2~~~~~~~~~~~~~~~~---2.3*-----------------|
 A|-----------------------------------------------------------------|
 D|----------------------------------------------------------/16\\\-|

Gtr1
 
 e|---------------------------------------------------------------------1517|
 B|-----10----------------10---------------------------10b13~~~~----1518----|
 G|11-12--11b12~~119-11-12--11b12~~11------10b13b10-------------1417--------|
 D|-----------------------------------12-912-------12p10--------------------|
 A|-------------------------------------------------------------------------|
 D|-------------------------------------------------------------------------|

Gtr2
 
 e|-----------------------------------------------------------------|
 B|-3---------------------------------------------5-5-5-5-----------|
 G|-2-------2-----2-2-2-2-----------5-----5-5-----5-5-5-5-----5-----|
 D|-0-------0-----0-0-0-0-----0-0-0-5-----5-5-----5-5-5-5-----5-0-0-|
 A|-0-------0-----0-0-0-0-----0-0-0-3-----3-3-----3-3-3-3-----3-0-0-|
 D|-0-------0-----0-0-0-0-----0-0-0-----------------------------0-0-|

very tricky to get this part perfect
Gtr1 PH* PH** PH***
 
 e|17b20-17b20b17p13-15-pb17b15p13-15-13b14-----------------------------------|
 B|------------------------------15-15----15--15----*-------------------------|
 G|---------------------------------------------17x-15b17*-----*----------1717|
 D|------------------------------------------------------18b17-15b16-16-------|
 A|-------------------------------------------------------------------17-14---|
 D|---------------------------------------------------------------------------|

*octave PH(rest thumb to just right of neck pup when picking)
**octave PH(thumb just a bit closer to the bridge)
***double octave PH(much closer to bridge...use your ear to find)
Gtr2
 
 e|-----------------------------------------------------------------|
 B|-6-----6-----3-----3-3-3-3-x-----8-----8-8-8-7-----7-7-7-7---7-7-|
 G|-5-----5-----4-----4-4-4-4-x-----7-----7-7-7-7-----7-7-7-7---7-7-|
 D|-3-----3-0-0-5-----5-5-5-5-x-0-0-5-----5-5-5-0-----0-0-0-0---0-0-|
 A|-3-----3-0-0-2-----2-2-2-2-x-0-0-5-----5-5-5-0-----0-0-0-0---0-0-|
 D|-3-----3-0-0-----------------0-0-5-----5-5-5-0-----0-0-0-0---0-0-|

Gtr1
 
 e|-------17------17----------17--------17-17\16-16\15-15\14------------------|
 B|-21b22x--21b22x---21b22-22----21b22x---------------------1515--1515h17p15\-|
 G|---------------------------------------------------------------------------|
 D|---------------------------------------------------------------------------|
 A|---------------------------------------------------------------------------|
 D|---------------------------------------------------------------------------|
 -------------------------------------------------------------------------|
 \101310--10----12b14-----------------------------------------------------|
 -------13--1310-----10~~~------------------------------------------------|
 -------------------------------------------------------------------------|
 -------------------------------------------------------------------------|
 -------------------------------------------------------------------------|

Gtr2
 
 e|-----------------------------------------------------------------|
 B|-7-------7-----7-7-7---7-7-5-5-3-3-----3-3-----3-3-3-3-----3-----|
 G|-7-------7-----7-7-7---7-7-7-7-x-5-----5-5-----5-5-5-5-----5-----|
 D|-0-------0-----0-0-0---0-0-0-0-0-5-----5-5-----5-5-5-5-----5-0-0-|
 A|-0-------0-----0-0-0---0-0-0-0-0-3-----3-3-----3-3-3-3-----3-0-0-|
 D|-0-------0-----0-0-0---0-0-0-0-0-----------------------------0-0-|

i slowed it down to about 20% speed here to make sure i got it as close as possible
Gtr1
p p p p h p h p h
 
 e|15---13----15----13----15----13----15-15----13-13----15-15----13-13-----|
 B|-15-13-15-15-15-13-15-15-1513-1510------1513----151013---151013---131013|
 G|--14----14----14----14--------------------------------------------------|
 D|------------------------------------------------------------------------|
 A|------------------------------------------------------------------------|
 D|------------------------------------------------------------------------|

Gtr1h p ...insane coordination...
 
 e|101310-----10--------------------------------------------------|
 B|-----131013--1310--1012131210--101310--10----------------------|
 G|-----------------13----------13------13---131013-10---13-10----|
 D|---------------------------------------------------12------12--|
 A|---------------------------------------------------------------|
 D|---------------------------------------------------------------|

Gtr2
 
 e|-----------------------------------------------------------------|
 B|-------------3-----3-3-3-3-x-----8-----------7---7-7-7-7-7---7-7-|
 G|-5-----5-----4-----4-4-4-4-x-----7-----7-7-7-7---7-7-7-7-7---7-7-|
 D|-3-----3-0-0-5-----5-5-5-5-x-0-0-5-----5-5-5-0---0-0-0-0-0---0-0-|
 A|-3-----3-0-0-2-----2-2-2-2-x-0-0-5-----5-5-5-0---0-0-0-0-0---0-0-|
 D|-3-----3-0-0-----------------0-0-5-----5-5-5-0---0-0-0-0-0---0-0-|

Gtr1 *harmonics near neck pickup w/ thumb
p.s
 
 e|-----------------------------------------------------------------|
 B|-13bb15~~~~~~~~~~*~~~~~~~~~~~*~~~~~------------------------------|
 G|-x(pb)-----------------------------(pb15)~*~~~~~~~~~~~-*ub12\\\--|
 D|-----------------------------------------------------------------|
 A|------------------------------------------------x\\\\------------|
 D|------------------------------------------------x\\\\------------|

Gtr2
 
 e|-----------------------------------------------------------------|
 B|-7-------7-----7-7-5-5-5---5-5-5-3-3---3-3-3---3-3-5-5-5-5-3-3-3-|
 G|-7-------7-----7-7-7-7-7---7-7-7-5-5---5-5-5---5-5-5-5-5-5-5-5-5-|
 D|-0-------0-----0-0-0-0-0---0-0-0-5-5---5-5-5---5-5-5-5-5-5-5-5-5-|
 A|-0-------0-----0-0-0-0-0---0-0-0-3-3---3-3-3---3-3-3-3-3-3-3-3-3-|
 D|-0-------0-----0-0-0-0-0---0-0-0---------------------------------|

Gtr1&2 (sounds like maybe a B3 Hammond organ playing the last bar. cool.)
 
 e|---------------------------------------------2-------------------|
 B|-6-----6-----3-------------------8-------6---3-------------------|
 G|-5-----5-----4-------------------7-------5---2-------------------|
 D|-3-----3-0-0-5---------------0-0-5-----5-3---0-------------------|
 A|-3-----3-0-0-2---------------0-0-5-----5-3b--0-------------------|
 D|-3-----3-0-0-----------------0-0-5-----5-3b--0-------------------|

| / slide up
| \ slide down
| PM palm mute
| PH pinch harmonic
| h hammer-on
| p pull-off
| ~ vibrato
| * harmonic
| x Mute note (or rake)
| ^ accent
| b bend
| pb prebend
| ub unbend
====================================================

Important: The song above is NOT stored on the Chordie server. The original song is hosted at www.azchords.com. Chordie works as a search engine and provides on-the-fly formatting. Chordie does not index songs against artists'/composers' will. To remove this song please click here.

Text color:
Chord color:
Chord grids: 
Font size:    
Page size: 

G3
Rate #3 of 3 versions

Jango Player

Login - add to songbook

SHARE PAGE  




You need to log in to post comments