Guitar Tabs, Chords and Lyrics
Update 25:10. 13:00. Site is back up running again. Songbooks are recovered. Woring on getting search back up..


Show Me a Leader   Alter Bridge

 
 D#|---------|----------------------|-------------------------|------------------------|
 A#|------12-|------12---13p12------|-------12----13p12-------|-12/17-17h18-17-15-12---|
 F#|-9h13----|-9h13----9-------13-9-|-10h14----10-------14-10-|----------------------9-|
 C#|---------|----------------------|-------------------------|------------------------|
 G#|---------|----------------------|-------------------------|------------------------|
 D#|-0-------|----------------------|-------------------------|------------------------|
 D#|------0-------------|------0-------------|-----0-----0-|---0---0---0---0-|
 A#|----------10--------|----------10--------|---7-----7---|-5---3---1---0---|
 F#|-8h11---8----8-11-8-|-8h11---8----8-11-8-|-9-----9-----|-----------------|
 C#|--------------------|--------------------|-------------|-----------------|
 G#|--------------------|--------------------|-------------|-7---5---3---2---|
 D#|--------------------|--------------------|-0-----------|-----------------|
 D#|---------|----------------------|-------------------------|------------------------|
 A#|------12-|------12---13p12------|-------12----13p12-------|-12/17-17h18-17-15-12---|
 F#|-9h13----|-9h13----9-------13-9-|-10h14----10-------14-10-|----------------------9-|
 C#|---------|----------------------|-------------------------|------------------------|
 G#|---------|----------------------|-------------------------|------------------------|
 D#|-0-------|----------------------|-------------------------|------------------------|
 D#|------0-------------|------0-------------|-----0-----0-|---0---0---0---0-|
 A#|----------10--------|----------10--------|---7-----7---|-5---3---1---0---|
 F#|-8h11---8----8-11-8-|-8h11---8----8-11-8-|-9-----9-----|-----------------|
 C#|--------------------|--------------------|-------------|-----------------|
 G#|--------------------|--------------------|-------------|-7---5---3---2---|
 D#|--------------------|--------------------|-0-----------|-----------------|

 


 


 [Guitar 1] 


 (distortion)


 

 
 D#|------------------|------------------|------------------|------------------|
 A#|------------------|------------------|------------------|------------------|
 F#|------------------|------------------|------------------|----------9-7-5-4-|
 C#|-2-----2----------|-3-----3--7-5-3-2-|-9-----9----------|-2-----2--9-7-5-4-|
 G#|-2-2-2-2----2-2-2-|-3-3-3-3--7-5-3-2-|-9-9-9-9----9-9-9-|-2-2-2-2--7-5-3-2-|
 D#|-0-0-0-0--0-0-0-0-|-1-1-1-1--5-3-1-0-|-7-7-7-7--7-7-7-7-|-0-0-0-0----------|

 


 (2x)


 

 
 D#|-----------------------|--------------------|----------------|----------------|
 A#|-----------------------|--------------------|----------------|----------------|
 F#|-2---2--5-5-4-4-2-2----|--------------------|-4---4----------|----------7-5-4-|
 C#|-2-2-2--5-5-4-4-2-2-xx-|-3---3--------------|-4-4-4----4-4-4-|-2---2--2-7-5-4-|
 G#|-0-0-0--3-3-2-2-0-0-xx-|-3-3-3--7-7-5-5-3-3-|-2-2-2--2-2-2-2-|-2-2-2--2-5-3-2-|
 D#|-----------------------|-1-1-1--5-5-3-3-1-1-|----------------|-0-0-0--0-------|

 


 


 (4x)


 

 
 D#|---------------------------------|
 A#|---------------------------------|
 F#|---------------------------------|
 C#|---------------------------------|
 G#|-----0-0-0-0-----0-0-0-0-----0-0-|
 D#|-3h5---------3h5---------3h5-----|
 D#|---------------------------------|---------------------------------|
 A#|---------------------------------|---------------------------------|
 F#|---------------------------------|---------------------------------|
 C#|---------------------------------|---------------------------------|
 G#|-----0-0-0-0-----0-0-0-0-----0-0-|-----0-0-0-0-----0-0-0-0-----0-0-|
 D#|-3h5---------3h5---------3h5-----|-7h8---------7h8---------7h8-----|
 D#|---------------------------------|------------------------------------|
 A#|---------------------------------|------------------------------------|
 F#|---------------------------------|------------------------------------|
 C#|---------------------------------|------------------------------------|
 G#|-----0-0-0-0-----0-0-0-0-----0-0-|------0-0-0-0------0-0-0-0------0-0-|
 D#|-0h1---------0h1---------0h1-----|-8h10---------8h10---------8h10-----|
 D#|---------------------------------|---------------------------------|
 A#|---------------------------------|---------------------------------|
 F#|---------------------------------|---------------------------------|
 C#|---------------------------------|---------------------------------|
 G#|-----0-0-0-0-----0-0-0-0-----0-0-|-----0-0-0-0-----0-0-0-0-----0-0-|
 D#|-3h5---------3h5---------3h5-----|-7h8---------7h8---------7h8-----|
 D#|---------------------------------|------------------------------------|
 A#|---------------------------------|------------------------------------|
 F#|---------------------------------|------------------------------------|
 C#|---------------------------------|------------------------------------|
 G#|-----0-0-0-0-----0-0-0-0-----0-0-|------0-0-0-0------0-0-0-0------0-0-|
 D#|-0h1---------0h1---------0h1-----|-8h10---------8h10---------8h10-----|

 


 


 [Guitar 2] 


 

 
 D#|-----16tr-|-17tr-20tr-|-----------|-----------------|
 A#|-17tr-----|-----------|-16tr-19tr-|-17--17-15-13-12-|
 F#|----------|-----------|-----------|-----------------|
 C#|----------|-----------|-----------|-----------------|
 G#|----------|-----------|-----------|-----------------|
 D#|----------|-----------|-----------|-----------------|
 D#|-------------------------|-----------12b-|---------------------------------|
 A#|----------12-12b-12b-12b-|-12b-----------|---------------------------------|
 F#|-14----14----------------|-----14p10-----|----16-16~-------16-16b-16br16---|
 C#|----14-------------------|---------------|-13--------13-14-----------------|
 G#|-------------------------|---------------|-------------------------------\-|
 D#|-------------------------|---------------|-------------------------------\-|
 D#|-----------------|------------|----19-19----|----19-19b-19br19----|-15b17-|
 A#|-14tr--15tr-17tr-|-18tr-19b22-|-------------|---------------------|-------|
 F#|-----------------|------------|-20-------20-|-21---------------21-|-------|
 C#|-----------------|------------|-------------|---------------------|-------|
 G#|-----------------|------------|-------------|---------------------|-------|
 D#|-----------------|------------|-------------|---------------------|-------|

 


 2x


 

 
 D#|-----------|-----------|
 A#|-----------|-18tr-15tr-|
 F#|-14tr-17tr-|-----------|
 C#|-----------|-15tr-12tr-|
 G#|-12tr-15tr-|-----------|
 D#|-----------|-----------|

 


 


 [Verse 1] 


 [Guitar 1] 


 

 
 D#|---------------------------------|------------------------------------|
 A#|---------------------------------|------------------------------------|
 F#|---------------------------------|------------------------------------|
 C#|---------------------------------|------------------------------------|
 G#|-5/7---------5/7---------5/7-----|-9/10---------9/10---------9/10-----|
 D#|-3/5-5-5-5-5-3/5-5-5-5-5-3/5-5-5-|-7/8--8-8-8-8-7/8--8-8-8-8-7/8--8-8-|

 


 


 (4x)


 

 
 D#|---------------------------------|---------------------------------|
 A#|---------------------------------|---------------------------------|
 F#|---------------------------------|---------------------------------|
 C#|---------------------------------|-5/7---------5/7---------5/7-----|
 G#|-2/3---------2/3---------2/3-----|-3/5-5-5-5-5-3/5-5-5-5-5-3/5-5-5-|
 D#|-0/1-1-1-1-1-0/1-1-1-1-1-0/1-1-1-|---------------------------------|

 


 


 [Guitar 2] 


 (2x)


 

 
 D#|-----------|-----------|
 A#|-----------|-18tr-15tr-|
 F#|-14tr-17tr-|-----------|
 C#|-----------|-15tr-12tr-|
 G#|-12tr-15tr-|-----------|
 D#|-----------|-----------|

 


 


 [Cborus] 


 

 
 D#|--------------|-------|--------------|--------------|
 A#|--------------|-------|--------------|--------------|
 F#|--------7-7-7-|-------|--------------|-7-7-7--7-7-7-|
 C#|-5-5-5--7-7-7-|--7----|-3-3-3--3-3-3-|-7-7-7--7-7-7-|
 G#|-5-5-5--5-5-5-|--7--7-|-3-3-3--3-3-3-|-5-5-5--5-5-5-|
 D#|-3-3-3--------|--5--5-|-1-1-1--1-1-1-|--------------|
 D#|--------------|-------|--------------|--------------------|
 A#|--------------|-------|--------------|--------------------|
 F#|--------7-7-7-|-------|--------------|--------------------|
 C#|-5-5-5--7-7-7-|--7----|-3-3-3--3-3-3-|-12-12-12--12-12-12-|
 G#|-5-5-5--5-5-5-|--7--7-|-3-3-3--3-3-3-|-12-12-12--12-12-12-|
 D#|-3-3-3--------|--5--5-|-1-1-1--1-1-1-|-10-10-10--10-10-10-|
 D#|---------------------------------|---------------------------------|
 A#|---------------------------------|---------------------------------|
 F#|---------------------------------|---------------------------------|
 C#|---------------------------------|---------------------------------|
 G#|-----0-0-0-0-----0-0-0-0-----0-0-|-----0-0-0-0-----0-0-0-0-----0-0-|
 D#|-3h5---------3h5---------3h5-----|-7h8---------7h8---------7h8-----|
 D#|---------------------------------|------------------------------------|
 A#|---------------------------------|------------------------------------|
 F#|---------------------------------|------------------------------------|
 C#|---------------------------------|------------------------------------|
 G#|-----0-0-0-0-----0-0-0-0-----0-0-|------0-0-0-0------0-0-0-0------0-0-|
 D#|-0h1---------0h1---------0h1-----|-8h10---------8h10---------8h10-----|

 


 


 [Verse 2] 


 [Guitar 1] 


 

 
 D#|---------------------------------|------------------------------------|
 A#|---------------------------------|------------------------------------|
 F#|---------------------------------|------------------------------------|
 C#|---------------------------------|------------------------------------|
 G#|-5/7---------5/7---------5/7-----|-9/10---------9/10---------9/10-----|
 D#|-3/5-5-5-5-5-3/5-5-5-5-5-3/5-5-5-|-7/8--8-8-8-8-7/8--8-8-8-8-7/8--8-8-|

 


 


 (4x)


 

 
 D#|---------------------------------|---------------------------------|
 A#|---------------------------------|---------------------------------|
 F#|---------------------------------|---------------------------------|
 C#|---------------------------------|-5/7---------5/7---------5/7-----|
 G#|-2/3---------2/3---------2/3-----|-3/5-5-5-5-5-3/5-5-5-5-5-3/5-5-5-|
 D#|-0/1-1-1-1-1-0/1-1-1-1-1-0/1-1-1-|---------------------------------|

 


 


 [Guitar 2] 


 (2x)


 

 
 D#|-----------|-----------|
 A#|-----------|-18tr-15tr-|
 F#|-14tr-17tr-|-----------|
 C#|-----------|-15tr-12tr-|
 G#|-12tr-15tr-|-----------|
 D#|-----------|-----------|

 


 


 [Cborus] 


 

 
 D#|--------------|-------|--------------|--------------|
 A#|--------------|-------|--------------|--------------|
 F#|--------7-7-7-|-------|--------------|-7-7-7--7-7-7-|
 C#|-5-5-5--7-7-7-|--7----|-3-3-3--3-3-3-|-7-7-7--7-7-7-|
 G#|-5-5-5--5-5-5-|--7--7-|-3-3-3--3-3-3-|-5-5-5--5-5-5-|
 D#|-3-3-3--------|--5--5-|-1-1-1--1-1-1-|--------------|
 D#|--------------|-------|--------------|--------------------|
 A#|--------------|-------|--------------|--------------------|
 F#|--------7-7-7-|-------|--------------|--------------------|
 C#|-5-5-5--7-7-7-|--7----|-3-3-3--3-3-3-|-12-12-12--12-12-12-|
 G#|-5-5-5--5-5-5-|--7--7-|-3-3-3--3-3-3-|-12-12-12--12-12-12-|
 D#|-3-3-3--------|--5--5-|-1-1-1--1-1-1-|-10-10-10--10-10-10-|

 


 


 [Bridge] 


 

 
 D#|------------------|---|-----------|-------------------|--------------|
 A#|------------------|---|-----------|-------------------|--------------|
 F#|-5-5-5-5----------|---|---7-7-7-7-|-5-5-5-5--9-9-9--2-|---2--2-2-2-2-|
 C#|-5-5-5-5--2-2-2-2-|-3-|-x-7-7-7-7-|-5-5-5-5--9-9-9--2-|-2-2--2-2-2-2-|
 G#|-3-3-3-3--2-2-2-2-|-3-|-x-5-5-5-5-|-3-3-3-3--7-7-7--0-|-0-0--0-0-0-0-|
 D#|----------0-0-0-0-|-1-|-----------|-------------------|--------------|
 D#|-----------|--------------|-------------------|-----------------|-----------------|
 A#|-----------|--------------|-------------------|-----------------|-----------------|
 F#|-----------|---7-7--7-7-7-|-5-5-5-5--9-9-9--7-|-----------------|-----------------|
 C#|-3-3-3-3-3-|-7-7-7--7-7-7-|-5-5-5-5--9-9-9--7-|-7-7-7-7-7-7-7-7-|-7-7-7-7-7-7-7-7-|
 C#|-3-3-3-3-3-|-5-5-5--5-5-5-|-3-3-3-3--7-7-7--5-|-5-5-5-5-5-5-5-5-|-5-5-5-5-5-5-5-5-|
 D#|-1-1-1-1-1-|--------------|-------------------|-----------------|-----------------|

 


 


 [Under solo] 


 

 
 D#|---------------------------------|------------------------------------|
 A#|---------------------------------|------------------------------------|
 F#|---------------------------------|------------------------------------|
 C#|---------------------------------|------------------------------------|
 G#|-5/7---------5/7---------5/7-----|-9/10---------9/10---------9/10-----|
 D#|-3/5-5-5-5-5-3/5-5-5-5-5-3/5-5-5-|-7/8--8-8-8-8-7/8--8-8-8-8-7/8--8-8-|

 


 


 (4x)


 

 
 D#|---------------------------------|---------------------------------|
 A#|---------------------------------|---------------------------------|
 F#|---------------------------------|---------------------------------|
 C#|---------------------------------|-5/7---------5/7---------5/7-----|
 G#|-2/3---------2/3---------2/3-----|-3/5-5-5-5-5-3/5-5-5-5-5-3/5-5-5-|
 D#|-0/1-1-1-1-1-0/1-1-1-1-1-0/1-1-1-|---------------------------------|

 


 


 [Cborus] 


 

 
 D#|--------------|-------|--------------|--------------|
 A#|--------------|-------|--------------|--------------|
 F#|--------7-7-7-|-------|--------------|-7-7-7--7-7-7-|
 C#|-5-5-5--7-7-7-|--7----|-3-3-3--3-3-3-|-7-7-7--7-7-7-|
 G#|-5-5-5--5-5-5-|--7--7-|-3-3-3--3-3-3-|-5-5-5--5-5-5-|
 D#|-3-3-3--------|--5--5-|-1-1-1--1-1-1-|--------------|
 D#|--------------|-------|--------------|--------------------|
 A#|--------------|-------|--------------|--------------------|
 F#|--------7-7-7-|-------|--------------|--------------------|
 C#|-5-5-5--7-7-7-|--7----|-3-3-3--3-3-3-|-12-12-12--12-12-12-|
 G#|-5-5-5--5-5-5-|--7--7-|-3-3-3--3-3-3-|-12-12-12--12-12-12-|
 D#|-3-3-3--------|--5--5-|-1-1-1--1-1-1-|-10-10-10--10-10-10-|
 D#|---------------------------------|------------------------------------|
 A#|---------------------------------|------------------------------------|
 F#|---------------------------------|------------------------------------|
 C#|---------------------------------|------------------------------------|
 G#|-5/7---------5/7---------5/7-----|-9/10---------9/10---------9/10-----|
 D#|-3/5-5-5-5-5-3/5-5-5-5-5-3/5-5-5-|-7/8--8-8-8-8-7/8--8-8-8-8-7/8--8-8-|

 


 


 (2x)


 

 
 D#|---------------------------------|---------------------------------|
 A#|---------------------------------|---------------------------------|
 F#|---------------------------------|---------------------------------|
 C#|---------------------------------|-5/7---------5/7---------5/7-----|
 G#|-2/3---------2/3---------2/3-----|-3/5-5-5-5-5-3/5-5-5-5-5-3/5-5-5-|
 D#|-0/1-1-1-1-1-0/1-1-1-1-1-0/1-1-1-|---------------------------------|

 


 


 [Outro] 


 [Guitar 1] 


 

 
 D#|---------------------------------|------------------------------------|
 A#|---------------------------------|------------------------------------|
 F#|---------------------------------|------------------------------------|
 C#|---------------------------------|------------------------------------|
 G#|-5/7---------5/7---------5/7-----|-9/10---------9/10---------9/10-----|
 D#|-3/5-5-5-5-5-3/5-5-5-5-5-3/5-5-5-|-7/8--8-8-8-8-7/8--8-8-8-8-7/8--8-8-|

 


 


 (2x)


 

 
 D#|---------------------------------|---------------------------------|
 A#|---------------------------------|---------------------------------|
 F#|---------------------------------|---------------------------------|
 C#|---------------------------------|-5/7---------5/7---------5/7-----|
 G#|-2/3---------2/3---------2/3-----|-3/5-5-5-5-5-3/5-5-5-5-5-3/5-5-5-|
 D#|-0/1-1-1-1-1-0/1-1-1-1-1-0/1-1-1-|---------------------------------|

 


 


 [Guitar 2] 


 

 
 D#|-----------|-----------|
 A#|-----------|-18tr-15tr-|
 F#|-14tr-17tr-|-----------|
 C#|-----------|-15tr-12tr-|
 G#|-12tr-15tr-|-----------|
 D#|-----------|-----------|

 


 


 (3x)


 

 
 D#|---------------------------------|
 A#|---------------------------------|
 F#|---------------------------------|
 C#|---------------------------------|
 G#|-----0-0-0-0-----0-0-0-0-----0-0-|
 D#|-3h5---------3h5---------3h5-----|
 D#|-----------------|
 A#|-----------------|
 F#|-----------------|
 C#|-5-5-5---------7-|
 G#|-5-5-5--5-5-5--7-|
 D#|-3-3-3--5-5-5--5-| 


Important: The song above is NOT stored on the Chordie server. The original song is hosted at www.azchords.com. Chordie works as a search engine and provides on-the-fly formatting. Chordie does not index songs against artists'/composers' will. To remove this song please click here.

This song is displayed as text-only. Transposing and tuning is only available for chordpro-songs.
Rate #2 of 2 versions

Login - add to songbook

SHARE PAGE  



You need to log in to post comments