Guitar Tabs, Chords and Lyrics
Update 25:10. 13:00. Site is back up running again. Songbooks are recovered. Woring on getting search back up..


Watch Over You   Alter Bridge

 
 e|-3---------5-------7------|---------------------------|
 B|-3--3-3-3--3--3-3--3--3-3-|-5--3-3-3--3--3-3--3-3-3-3-|
 G|-4--4-4-4--4--4-4--4--4-4-|-5--5-5-5--5--5-5--5-5-5-5-| X 2
 D|-5--5-5-5--X--X-X--X--X-X-|-5--5-5-5--5--5-5--5-5-5-5-|
 A|-5--5-5-5--5--5-5--5--5-5-|-3--3-3-3--3--3-3--3-3-3-3-|
 E|-3--3-3-3--3--3-3--3--3-3-|---------------------------|

 


 [1] [+] [2] [+] [3] [+] [4] [+] [1] [+] [2] [+] [3] [+] [4] [+] 


 


 VERSE


 


 

 
 e|-3---------5-------7------|---------------------------|
 B|-3--3-3-3--3--3-3--3--3-3-|-5--3-3-3--3--3-3--3-3-3-3-|
 G|-4--4-4-4--4--4-4--4--4-4-|-5--5-5-5--5--5-5--5-5-5-5-| VERSE 1 X 6
 D|-5--5-5-5--X--X-X--X--X-X-|-5--5-5-5--5--5-5--5-5-5-5-| VERSE 2 X 3
 A|-5--5-5-5--5--5-5--5--5-5-|-3--3-3-3--3--3-3--3-3-3-3-|
 E|-3--3-3-3--3--3-3--3--3-3-|---------------------------|

 


 [1] [+] [2] [+] [3] [+] [4] [+] [1] [+] [2] [+] [3] [+] [4] [+] 


 


 THEN


 


 

 
 e|-3---------5-------7------|--------------------------|
 B|-3--3-3-3--3--3-3--3--3-3-|-3-----3--3--3-----3--3---|
 G|-4--4-4-4--4--4-4--4--4-4-|-4-----4--4--4-----4--4---|
 D|-5--5-5-5--X--X-X--X--X-X-|-5-----5--5--5-----5--5---|
 A|-5--5-5-5--5--5-5--5--5-5-|-5-----5--5--5-----5--5---|
 E|-3--3-3-3--3--3-3--3--3-3-|-3-----3--3--2-----2--2---|

 


 [1] [+] [2] [+] [3] [+] [4] [+] [1] [+] [2] [+] [3] [+] [4] [+] 


 


 CHORUS


 


 

 
 e|-3-----3-----3--3--3---33-|-2-----2-----2--2--2---22-|
 B|-3-----3-----3--3--3---33-|-3-----3-----3--3--3---33-|
 G|-0-----0-----0--0--0---00-|-2-----2-----2--2--2---22-|
 D|-2-----2-----2--2--2---22-|-0-----0-----0--0--0---00-|
 A|-2-----2-----2--2--2---22-|-0-----0-----0--0--0---00-|
 E|-0-----0-----0--0--0---00-|--------------------------|

 


 [1] [+] [2] [+] [3] [+] [4] [+] [1] [+] [2] [+] [3] [+] [4] [+] 


 


 

 
 e|-3-----3-----3--3--3---33-|-3-----3--3--3-----3--3---|
 B|-1-----1-----1--1--1---11-|-3-----3--3--3-----3--3---|
 G|-0-----0-----0--0--0---00-|-0-----0--0--0-----0--0---|
 D|-2-----2-----2--2--2---22-|-0-----0--0--0-----0--0---|
 A|-3-----3-----3--3--3---33-|-2-----2--2--2-----2--2---|
 E|-0-----0-----0--0--0---00-|-3-----3--3--2-----2--2---|

 


 [1] [+] [2] [+] [3] [+] [4] [+] [1] [+] [2] [+] [3] [+] [4] [+] 


 

 
 e|-3-----3-----3--3--3---33-|-2-----2-----2--2--2---22-|-3~~~~~--|
 B|-3-----3-----3--3--3---33-|-3-----3-----3--3--3---33-|-1~~~~~--|
 G|-0-----0-----0--0--0---00-|-2-----2-----2--2--2---22-|-0~~~~~--|
 D|-2-----2-----2--2--2---22-|-0-----0-----0--0--0---00-|-2~~~~~--|
 A|-2-----2-----2--2--2---22-|-0-----0-----0--0--0---00-|-3~~~~~--|
 E|-0-----0-----0--0--0---00-|--------------------------|-0~~~~~--|

 


 [1] [+] [2] [+] [3] [+] [4] [+] [1] [+] [2] [+] [3] [+] [4] [+] 


 


 BRIDGE IN THE SAME CHORD STRUCTURES AS ABOVE BUT DIFFERENT ORDER


 


 |Em |C |G |D |


 |Em |C |G |D |


 |Em |C |G | |


 


 VERSE 3


 


 


 

 
 e|-3---------5-------7------|---------------------------|
 B|-3--3-3-3--3--3-3--3--3-3-|-5--3-3-3--3--3-3--3-3-3-3-|
 G|-4--4-4-4--4--4-4--4--4-4-|-5--5-5-5--5--5-5--5-5-5-5-|
 D|-5--5-5-5--X--X-X--X--X-X-|-5--5-5-5--5--5-5--5-5-5-5-| X 3
 A|-5--5-5-5--5--5-5--5--5-5-|-3--3-3-3--3--3-3--3-3-3-3-|
 E|-3--3-3-3--3--3-3--3--3-3-|---------------------------|

 


 [1] [+] [2] [+] [3] [+] [4] [+] [1] [+] [2] [+] [3] [+] [4] [+] 


 


 THEN


 


 

 
 e|-3---------5-------7------|-3~~~~--|
 B|-3--3-3-3--3--3-3--3--3-3-|-3~~~~--|
 G|-4--4-4-4--4--4-4--4--4-4-|-4~~~~--|
 D|-5--5-5-5--X--X-X--X--X-X-|-5~~~~--|
 A|-5--5-5-5--5--5-5--5--5-5-|-5~~~~--|
 E|-3--3-3-3--3--3-3--3--3-3-|-3~~~~--|


Important: The song above is NOT stored on the Chordie server. The original song is hosted at www.azchords.com. Chordie works as a search engine and provides on-the-fly formatting. Chordie does not index songs against artists'/composers' will. To remove this song please click here.

This song is displayed as text-only. Transposing and tuning is only available for chordpro-songs.
Rate #4 of 9 versions

Login - add to songbook

SHARE PAGE  



You need to log in to post comments