Guitar Tabs, Chords and Lyrics
Server problems seems to be fixed. Chordie has been experiencing problems with songs disappearing. These issues now seems to be fixed, but still verifying the fix. If you find anything strange, please email admin@chordie.com.


My Only One  Amy Macdonald

 
 -----------------------------------------------------------------
 -----------------------------------------------------------------

THIS IS ONLY A SIMPLIFIED/BASIC VERSION, AMY EMBELLISHES AND ADDS EXTRA NOTES.
DON'T FORGET TO COMMENT AND SUBSCRIBE.
On C chord
 
 e|---------------------------------------------------------------|
 B|--------1-------1--------------1-----1-------------------------|
 G|-------------------0-------------------0-----------------------|
 D|----2--------2-------2------2------2-----2---------------------|
 A|-3--------3--------------3-------3-----------------------------|
 E|---------------------------------------------------------------|

On Am(1) chord
 
 e|---------------------------------------------------------------|
 B|--------1-------1--------------1--0h1p0------------------------|
 G|-------------------2---------------------2---------------------|
 D|----2--------2-------2------2---------------2------------------|
 A|-0--------0--------------0-------------------------------------|
 E|---------------------------------------------------------------|

On Am(2) chord
 
 e|---------------------------------------------------------------|
 B|--------1-------1--------------1--------1----------------------|
 G|-------------------2-----------------------2-------------------|
 D|----2--------2-------2------2--------2--------2----------------|
 A|-0--------0--------------0--------0----------------------------|
 E|---------------------------------------------------------------|

On F chord
 
 e|---------------------------------------------------------------|
 B|--------1-------1--------------1-----1-------------------------|
 G|----2--------2-------2------2------2-----2---------------------|
 D|-3--------3--------------3-------3-----------------------------|
 A|---------------------------------------------------------------|
 E|---------------------------------------------------------------|

On G chord
 
 e|---------------------------------------------------------------|
 B|-------3--------3-------------3---------3----------------------|
 G|------------------0------------------------0-------------------|
 D|---0---------0------0------0--------0--------0-----------------|
 A|---------------------------------------------------------------|
 E|-3--------3-------------3--------3-----------------------------|

On E chord
 
 e|---------------------------------------------------------------|
 B|-------0--------0--------------0--------0----------------------|
 G|-------------------0-----------------------0-------------------|
 D|----2--------2--------2-----2--------2-------2-----------------|
 A|---------------------------------------------------------------|
 E|-0--------0--------------0--------0----------------------------|

| / slide up
| \ slide down
| h hammer-on
| p pull-off
| ~ vibrato
| + harmonic
| x Mute note
Intro: C
[C]After all the mistakes have been and g[Am(1)]one
You're [C]still standing here, standing s[Am(2)]trong
And I forg[C]ive all the wrongs that you have[Am(1)] ever done
Cos' you're [F]still the on[G]ly o[C]ne
[C]The apple of your mother's [Am(1)]eye
Your [C]life it passed your father [Am(2)]by
I bet he wh[C]ishes that he was there [Am(1)]too
So much grace and [F]poise yeah you're a[G]lways right on c[C]ue
And there were [F]times
You know it's t[G]rue
When the wh[C]ole world
Was lo[E]oking at [Am(1)]you
They changed their m[F]inds from day to ni[G]ght
One minute you're w[C]rong then the n[E]ext thing you're ri[Am(1)]ght
God rest your s[F]oul
Keep standing t[G]all my only o[C]ne
[C]There's still a twinkle in your [Am(1)]eye
[C]Even after we say goodb[Am(2)]ye
You're always t[C]here in spirit and in m[Am(1)]ind
I'll be with y[F]ou until the e[G]nd of t[C]ime
And there were t[F]imes
You know it's t[G]rue
When the wh[C]ole world
Was lo[E]oking at y[Am(2)]ou
They changed their m[F]inds from day to n[G]ight
One minute you're wr[C]ong then the n[E]ext thing you're r[Am(2)]ight
God rest your s[F]oul
Keep standing t[G]all my only o[C]ne

Important: The song above is NOT stored on the Chordie server. The original song is hosted at www.azchords.com. Chordie works as a search engine and provides on-the-fly formatting. Chordie does not index songs against artists'/composers' will. To remove this song please click here.

Text color:
Chord color:
Chord grids: 
Font size:    
Page size: 

C E F G
Rate #1 of 7 versions

Jango Player

Login - add to songbook

SHARE PAGE  




You need to log in to post comments