Guitar Tabs, Chords and Lyrics
Server problems seems to be fixed. Chordie has been experiencing problems with songs disappearing. These issues now seems to be fixed, but still verifying the fix. If you find anything strange, please email admin@chordie.com.


Your Time Will Come  Amy Macdonald

Amy MacDonald ?? Your time will come
This is the most beautiful song I´ve ever heard.
There are so many requests on the internet for the tabs so I worked them out.
Standard tuning, no capo
[Intro:] 
[D] [Bm]  
 
 E-----2-------2-------2-------2-------2-------2-------2-------2--|
 B---3---3---3---3---3---3---3---3---3---3---3---3---3---3---3---3|
 G----------------------------------------------------------------|
 D-0-------0-------0-------0-------4-------4-------4-------4------|
 A----------------------------------------------------------------|
 E----------------------------------------------------------------|

[Em] [A]  
 
 E-----0-------0-------2-------3----------------------------------|
 B---0---0---0---0---0---0---0---0-----2-------2-------3-------3--|
 G-----------------------------------2---2---2---2---2---2---2---2|
 D-2-------2-------2-------2-------2-------2-------2-------2------|
 A----------------------------------------------------------------|
 E----------------------------------------------------------------|

[Bere begins tbe 1st Verse:] Oh, the
[D] [Bm]  
 
 E-----2-------2-------2-------2-------2-------2-------2-------2--|
 B---3---3---3---3---3---3---3---3---3---3---3---3---3---3---3---3|
 G----------------------------------------------------------------|
 D-0-------0-------0-------0-------4-------4-------4-------4------|
 A----------------------------------------------------------------|
 E----------------------------------------------------------------|

wind is gently blowing as the light begins to fade. I´m
[Em] [A]  
 
 E-----0-------0-------0-------0----------------------------------|
 B---0---0---0---0---0---0---0---0-----2-------2-------3-------3--|
 G-----------------------------------2---2---2---2---2---2---2---2|
 D-2-------2-------2-------2-------2-------2-------2-------2------|
 A----------------------------------------------------------------|
 E----------------------------------------------------------------|

sick and tired of playing it off, sick of this parade. And your
[D] [Bm]  
 
 E-----2-------2-------2-------2-------2-------2-------2-------2--|
 B---3---3---3---3---3---3---3---3---3---3---3---3---3---3---3---3|
 G----------------------------------------------------------------|
 D-0-------0-------0-------0-------4-------4-------4-------4------|
 A----------------------------------------------------------------|
 E----------------------------------------------------------------|

eyes are gently weeping as the sun begins to shine.
[Em] [A]  
 
 E-----0-------0-------0-------0----------------------------------|
 B---0---0---0---0---0---0---0---0-----2-------2-------3-------3--|
 G-----------------------------------2---2---2---2---2---2---2---2|
 D-2-------2-------2-------2-------2-------2-------2-------2------|
 A----------------------------------------------------------------|
 E----------------------------------------------------------------|

The end is coming far too soon, I wish i had more time. So soon your
[Witb tbese words, seamless begins tbe cborus:] 
[D] [Bm]  
 
 E-----2-------2-------2-------2-------2-------2-------2-------2--|
 B---3---3---3---3---3---3---3---3---3---3---3---3---3---3---3---3|
 G----------------------------------------------------------------|
 D-0-------0-------0-------0-------4-------4-------4-------4------|
 A----------------------------------------------------------------|
 E----------------------------------------------------------------|

time will come. Let it out while you´re still young. May all your
[Em] [A]  
 
 E-----0-------0-------2-------3----------------------------------|
 B---0---0---0---0---0---0---0---0-----2-------2-------3-------3--|
 G-----------------------------------2---2---2---2---2---2---2---2|
 D-2-------2-------2-------2-------2-------2-------2-------2------|
 A----------------------------------------------------------------|
 E----------------------------------------------------------------|

dreams come true, for someone like you. So soon your
[D] [Bm]  
 
 E-----2-------2-------2-------2-------2-------2-------2-------2--|
 B---3---3---3---3---3---3---3---3---3---3---3---3---3---3---3---3|
 G----------------------------------------------------------------|
 D-0-------0-------0-------0-------4-------4-------4-------4------|
 A----------------------------------------------------------------|
 E----------------------------------------------------------------|

time will come. Let it out while you´re still young. May all your
[Em] [A]  
 
 E-----0-------0-------2-------3----------------------------------|
 B---0---0---0---0---0---0---0---0-----2-------2-------3-------3--|
 G-----------------------------------2---2---2---2---2---2---2---2|
 D-2-------2-------2-------2-------2-------2-------2-------2------|
 A----------------------------------------------------------------|
 E----------------------------------------------------------------|

dreams come true, so happy for yooooooooouuuuuuuuu.
[Here begins the strumming part. Listen to the song for the exact pattern,
but you can use nearly everything that ROCKS.
First play the chords once without words, and then begins the second verse.]
D Bm Em A [1x]
And my e[D]yes are getting tired as the [Bm]day begins to break.
I l[Em]eft it oh so far behind, my[A] biggest mistake.
And your s[D]ign is unlike mine, it disapp[Bm]ears from time to time [*]
And I be[Em]lieve in you and everything you´ll [A]ever do.
[Cborus:] 
So soon your t[D]ime will come. Let it out while y[Bm]ou´re still young.
May all your dr[Em]eams come true for some[A]one like you.
So soon your t[D]ime will come. Let it out while y[Bm]ou´re still young.
May all your d[Em]reams come true, so happy f[A]or you.
D Bm Em A [2x]
[Now use some softer, slower strumming for the final chorus;
I recommend only to strum every chord only once or twice with the rhythm!]
So soon your t[D]ime will come. Let it out while y[Bm]ou´re still young.
May all your d[Em]reams come true, for some[A]one like you.
So soon your t[D]ime will come. Let it out while y[Bm]ou´re still young.
Em A [-> End on D]
May all your dreams come true, so happy for you.
[*: Hey, you discovered the star in the second verse.
It says that I´m not sure what Amy really sings in this line.
Maybe you can help me out.]

Important: The song above is NOT stored on the Chordie server. The original song is hosted at www.azchords.com. Chordie works as a search engine and provides on-the-fly formatting. Chordie does not index songs against artists'/composers' will. To remove this song please click here.

Text color:
Chord color:
Chord grids: 
Font size:    
Page size: 

A Bm D Em
Rate #1 of 3 versions

Login - add to songbook

SHARE PAGE  



You need to log in to post comments