Guitar Tabs, Chords and Lyrics
Server problems seems to be fixed. Chordie has been experiencing problems with songs disappearing. These issues now seems to be fixed, but still verifying the fix. If you find anything strange, please email admin@chordie.com.


Alas We Aspire  Amy Stroup

(Pattern 1)
[D/A] [D1/A] [D2/A] [D3/A] 
[1] [+] [2] [+] [3] [+] [4] [+] [1] [+] [2] [+] [3] [+] [4] [+] [1] [+] [2] [+] [3] [+] [4] [+] [1] [+] [2] [+] [3] [+] [4] [+]  
 
 e|---------------|---------------|---------------|---------------|
 B|----3-----3---5|----------5---5|----------5---7|----------7---7|
 G|----2-----2---4|----------4---6|----------6---7|----------7---7|
 D|----0-----0---0|----------0---0|----------0---0|----------0---0|
 A|0-------0---0--|0---0---0---0--|0---0---0---0--|0---0---0---0--|
 E|---------------|---------------|---------------|---------------|

(Pattern 2)
[D/A] [D1/A] [D2/A] [D3/A] 
[1] [+] [2] [+] [3] [+] [4] [+] [1] [+] [2] [+] [3] [+] [4] [+] [1] [+] [2] [+] [3] [+] [4] [+] [1] [+] [2] [+] [3] [+] [4] [+]  
 
 e|---------------|---------------|---------------|---------------|
 B|----------3---5|----------5---5|----------5---7|----------7---7|
 G|----------2---4|----------4---6|----------6---7|----------7---7|
 D|----------0---0|----------0---0|----------0---0|----------0---0|
 A|0---0---0---0--|0---0---0---0--|0---0---0---0--|0---0---0---0--|
 E|---------------|---------------|---------------|---------------|

(Introduction)
(Pattern 1 and then ? Pattern 2)
D/A D1/A D2/A D3/A ?? D/A D1/A D2/A D3/A
(Verse)
[D/A]Hey here we [D1/A]go, even [D2/A]we, even [D3/A]so
[D/A]Hey here we [D1/A]go, ever [D2/A]fast, ever [D3/A]slow
(Interlude)
D/A D1/A D2/A D3/A (x2)
A[D/A]las we a[D1/A]spire, feel the [D2/A]flame carry [D3/A]fire
A[D/A]las we as [D1/A]fire, feel the [D2/A]flame take me [D3/A]higher
(Chorus)
[G] Where a[A]re you n[D]ow... oh o[G]h
[G] Where a[A]re you n[D]ow... oh o[G]h
[G] Where a[A]re you now
(Interlude)
D/A D1/A D2/A D3/A (x2)
(Verse)
[D/A]Look through my [D1/A]words, I'm [D2/A]mine you're [D3/A]yours
[D/A]Look through my [D1/A]words, I'm [D2/A]mine you're [D3/A]yours
(Chorus)
[G] Where a[A]re you n[D]ow... oh o[G]h
[G] I am[A] so lost[D] till you're f[G]ound
[G] Where a[A]re you n[D]ow... oh o[G]h
[G] I am[A] so lost[D] till you're f[G]ound
[G] Where a[A]re you n[D]ow... oh o[G]h
[G] I am[A] so lost[D] till you're f[G]ound
[G] Where a[A]re you now
(Interlude)
D/A D1/A D2/A D3/A (x2)
(Verse)
[D/A]Rain cleared the [D1/A]wood
Shallow [D2/A]light there you [D3/A]stood
[D/A]Rain cleared the [D1/A]wood
Turned my [D2/A]eyes there you [D3/A]stood

Important: The song above is NOT stored on the Chordie server. The original song is hosted at www.azchords.com. Chordie works as a search engine and provides on-the-fly formatting. Chordie does not index songs against artists'/composers' will. To remove this song please click here.

Text color:
Chord color:
Chord grids: 
Font size:    
Page size: 

A D D2/A G
Rate #1 of 1 versions

Login - add to songbook

SHARE PAGE  



You need to log in to post comments