Guitar Tabs, Chords and Lyrics
Server problems seems to be fixed. Chordie has been experiencing problems with songs disappearing. These issues now seems to be fixed, but still verifying the fix. If you find anything strange, please email admin@chordie.com.


Love Is a Losing Game  Amy Winehouse

[C7+] [F/G] [Fm] [C7+]  
 
 E|-----------------|-----------------|----------------|-----------------|
 B|-----0-----0-----|-----1-----1-----|-----1-----1----|-----0-----0-----|
 G|-----0-----0-----|-----2-----2-----|-----1-----1----|-----0-----0-----|
 D|---2-----2-----2-|---3-----3-----3-|---3-----3-----3|---2-----2-----2-|
 A|-3-----3-----3---|-----------------|----------------|-3-----3-----3---|
 E|-----------------|-3-----3-----3---|-1-----1-----1--|-----------------|

[Am7] [Dm7] [Fm] [C7+]  
 
 E|-----------------|-----1-----1-----|----------------|-----------------|
 B|-----5-----5-----|-----1-----1-----|-----1-----1----|-----0-----0-----|
 G|-----5-----5-----|---2-----2-----2-|-----1-----1----|-----0-----0-----|
 D|---5-----5-----5-|-0-----0-----0---|---3-----3-----3|---2-----2-----2-|
 A|-----------------|-----------------|----------------|-3-----3-----3---|
 E|-5-----5-----5---|-----------------|-1-----1-----1--|-----------------|

Itro:
[Fm]  
[C7+]For you I [F/G]was a flame
[Fm]Love is a l[C7+]osing game
[C7+]Five story [F/G]fire as you came
[Fm]Love is a l[C7+]osing game
[Am7]Why do I wish [Dm7]I never played
[Fm]Oh what [C7+]a mess we made
[C7+]And now the [F/G]final frame
[Fm]Love is a l[C7+]osing game
[Fm]  
[C7+]Played out by[F/G] the band
[Fm]Love is a l[C7+]osing hand
[C7+]More than I c[F/G]ould stand
[Fm]Love is a l[C7+]osing hand
[Am7]Self professed[Dm7]... profound
[Fm]Till the chip[C7+]s were down
[C7+]...know you're a g[F/G]ambling man
[Fm]Love is a l[C7+]osing hand
[Fm]  
[C7+]Though I'm r[F/G]ather blind
[Fm]Love is a fa[C7+]te resigned
[C7+]Memories mar[F/G] my mind
[Fm]Love is a fa[C7+]te resigned
[Am7]Over futile[Dm7] odds
[Fm]And laughed at by[C7+] the gods
[C7+]And now the fi[F/G]nal frame
[Fm]Love is a lo[C7+]sing game
[C7+] [F/G] [Fm] [Am7] [Dm7]  
[EADGBE]x3200x [EADGBE]3x321x [EADGBE]1x311x [EADGBE]5x555x [EADGBE]xx0211

Important: The song above is NOT stored on the Chordie server. The original song is hosted at www.azchords.com. Chordie works as a search engine and provides on-the-fly formatting. Chordie does not index songs against artists'/composers' will. To remove this song please click here.

Text color:
Chord color:
Chord grids: 
Font size:    
Page size: 

Am7 C7+ Dm7 F/G Fm
Rate #1 of 6 versions

Login - add to songbook

SHARE PAGE  



You need to log in to post comments