Guitar Tabs, Chords and Lyrics
Major upgrade!! After one year development the new version of Chordie is now online! Please give feedback.


Cadence  Anberlin

As recorded by Anberlin
(From the 2003 Album BLUEPRINTS FOR THE BLACK MARKET)
Words and Music by Anberlin
[D5]0 0 0 x x x E5
2 2 2 x x x F#5
4 4 4 x x x A5
x 0 2 2 x x
[Asus2]7 7 9 x x x F#m
4 4 7 x x x
Gtr I (D A D G B E) - 'Untitled'
Gtr II (D A D G B E) - 'Untitled'
Gtr III (D A D G B E) - 'Untitled'
Gtr IV (D A D G B E) - 'Untitled'
Verse
Q=95
[F#sus2] [F#m] [F#sus2] [F#m] 
[4/4] Gtr I
S S S S E S S S S E Q S S S S E S S S S E Q
 
 |------------------------|------------------------|
 |------------------------|------------------------|
 |------------------------|------------------------|
 |-6-6-6-6---7-7-7-7------|-6-6-6-6---7-7-7-7------|
 |-4-4-4-4---4-4-4-4------|-4-4-4-4---4-4-4-4------|
 |-4-4-4-4---4-4-4-4------|-4-4-4-4---4-4-4-4------|

[D5]Q E. S S S S S E S S Q E. S E S S S S S S
 
 |-----------------------|-----------------------|
 |-----------------------|-----------------------|
 |-----------------------|-----------------------|
 |-0--0--0-0-0-0-0-0-0-0-|-0--0--0-0-x-x-x-x-x-x-|
 |-0--0--0-0-0-0-0-0-0-0-|-0--0--0-0-x-x-x-x-x-x-|
 |-0--0--0-0-0-0-0-0-0-0-|-0--0--0-0-x-x-x-x-x-x-|

[F#sus2]S S S S E [F#m]S S S S E Q [F#sus2]S S S S E [F#m]S S S S E Q
 
 |------------------------|------------------------|
 |------------------------|------------------------|
 |------------------------|------------------------|
 |-6-6-6-6---7-7-7-7------|-6-6-6-6---7-7-7-7------|
 |-4-4-4-4---4-4-4-4------|-4-4-4-4---4-4-4-4------|
 |-4-4-4-4---4-4-4-4------|-4-4-4-4---4-4-4-4------|

[D5]Q E. S S S S S E S S Q E. S S S S S E S S
 
 |-----------------------|-----------------------|
 |-----------------------|-----------------------|
 |-----------------------|-----------------------|
 |-0--0--0-0-0-0-0-0-0-0-|-0--0--0-0-0-0-0-0-0-0-|
 |-0--0--0-0-0-0-0-0-0-0-|-0--0--0-0-0-0-0-0-0-0-|
 |-0--0--0-0-0-0-0-0-0-0-|-0--0--0-0-0-0-0-0-0-0-|

[F#sus2]S S S S E [F#m]S S S S E [D5]Q [F#sus2]S S S S E [F#m]S S S S E Q
 
 |------------------------|------------------------|
 |------------------------|------------------------|
 |------------------------|------------------------|
 |-6-6-6-6---7-7-7-7---0--|-6-6-6-6---7-7-7-7------|
 |-4-4-4-4---4-4-4-4---0--|-4-4-4-4---4-4-4-4------|
 |-4-4-4-4---4-4-4-4---0--|-4-4-4-4---4-4-4-4------|

[D5]Q E. S S S S S E S S Q E. S S S S S E S S
 
 |-----------------------|-----------------------|
 |-----------------------|-----------------------|
 |-----------------------|-----------------------|
 |-0--0--0-0-0-0-0-0-0-0-|-0--0--0-0-0-0-0-0-0-0-|
 |-0--0--0-0-0-0-0-0-0-0-|-0--0--0-0-0-0-0-0-0-0-|
 |-0--0--0-0-0-0-0-0-0-0-|-0--0--0-0-0-0-0-0-0-0-|

[F#sus2]S S S S E [F#m]S S S S E Q [F#sus2]S S S S E [F#m]S S S S E Q
 
 |------------------------|------------------------|
 |------------------------|------------------------|
 |------------------------|------------------------|
 |-6-6-6-6---7-7-7-7------|-6-6-6-6---7-7-7-7------|
 |-4-4-4-4---4-4-4-4------|-4-4-4-4---4-4-4-4------|
 |-4-4-4-4---4-4-4-4------|-4-4-4-4---4-4-4-4------|

[D5]Q E. S S S S S E S S Q E. S S S S S E S S
 
 |-----------------------|-----------------------|
 |-----------------------|-----------------------|
 |-----------------------|-----------------------|
 |-0--0--0-0-0-0-0-0-0-0-|-0--0--0-0-0-0-0-0-0-0-|
 |-0--0--0-0-0-0-0-0-0-0-|-0--0--0-0-0-0-0-0-0-0-|
 |-0--0--0-0-0-0-0-0-0-0-|-0--0--0-0-0-0-0-0-0-0-|

Chorus
[Asus2]Gtr I[F#m]
[E]| [E]| [E]| [E]| [E]| [E]| [E]| [E]| [E]| [E]| [E]| [E]| [E]| [E]| [E]| [E]|
[/] [/] [/] [/] [/] [/] [/] [/] [/] [/] [/] [/] [/] [/] [/] [/] 
Gtr II
E E E Q E +S E. E E E Q E +S E.
 
 ||-----------0---------0----|----------0---------0----|
 ||o--------------0-(0)------|--------------0-(0)------|
 ||--13h14-------------------|-13h14-------------------|
 ||--------14----------------|-------14----------------|
 ||o-------------------------|-------------------------|
 ||--------------------------|-------------------------|

[D5]  
[E]| [E]| [E]| [E]| [E]| [E]| [E]| [E]| [E]| [E]| [E]| [E]| [E]| [E]| [E]| [E]|
[/] [/] [/] [/] [/] [/] [/] [/] [/] [/] [/] [/] [/] [/] [/] [/]  
W W
 
 |-----------------|------------------||
 |-----------------|-----------------o||
 |-----------------|------------------||
 |-----------------|------------------||
 |-----------------|-----------------o||
 |-----------------|------------------||

Verse 2
[F#sus2]Gtr I[F#m] [E5] [F#sus2] [F#m]
S S S S E S S S S E Q S S S S E S S S S S S S S E
 
 |--------------------------|-----------------------------|
 |--------------------------|-----------------------------|
 |--------------------------|-----------------------------|
 |-6-6-6-6---7-7-7-7---14\--|-6-6-6-6---7-7-7-x-x-x-x-x-x-|
 |-4-4-4-4---4-4-4-4---14\--|-4-4-4-4---4-4-4-x-x-x-x-x-x-|
 |-4-4-4-4---4-4-4-4---14\--|-4-4-4-4---4-4-4-x-x-x-x-x-x-|

[D5]Q E. S S S S S E S S Q E. S E S S S S S S
 
 |-----------------------|-----------------------|
 |-----------------------|-----------------------|
 |-----------------------|-----------------------|
 |-0--0--0-0-0-0-0-0-0-0-|-0--0--0-0-x-x-x-x-x-x-|
 |-0--0--0-0-0-0-0-0-0-0-|-0--0--0-0-x-x-x-x-x-x-|
 |-0--0--0-0-0-0-0-0-0-0-|-0--0--0-0-x-x-x-x-x-x-|

[F#sus2]S S S S E [F#m]S S S S E Q [F#sus2]S S S S E [F#m]S S S S E Q
 
 |------------------------|------------------------|
 |------------------------|------------------------|
 |------------------------|------------------------|
 |-6-6-6-6---7-7-7-7------|-6-6-6-6---7-7-7-7------|
 |-4-4-4-4---4-4-4-4------|-4-4-4-4---4-4-4-4------|
 |-4-4-4-4---4-4-4-4------|-4-4-4-4---4-4-4-4------|

[D5]Q E. S S S S S E S S Q E. S S S S S E S S
 
 |-----------------------|-----------------------|
 |-----------------------|-----------------------|
 |-----------------------|-----------------------|
 |-0--0--0-0-0-0-0-0-0-0-|-0--0--0-0-0-0-0-0-0-0-|
 |-0--0--0-0-0-0-0-0-0-0-|-0--0--0-0-0-0-0-0-0-0-|
 |-0--0--0-0-0-0-0-0-0-0-|-0--0--0-0-0-0-0-0-0-0-|

[F#sus2]S S S S E [F#m]S S S S E [D5]Q [F#sus2]S S S S E [F#m]S S S S E Q
 
 |------------------------|------------------------|
 |------------------------|------------------------|
 |------------------------|------------------------|
 |-6-6-6-6---7-7-7-7---0--|-6-6-6-6---7-7-7-7------|
 |-4-4-4-4---4-4-4-4---0--|-4-4-4-4---4-4-4-4------|
 |-4-4-4-4---4-4-4-4---0--|-4-4-4-4---4-4-4-4------|

[D5]Q E. S S S S S E S S Q E. S S S S S E S S
 
 |-----------------------|-----------------------|
 |-----------------------|-----------------------|
 |-----------------------|-----------------------|
 |-0--0--0-0-0-0-0-0-0-0-|-0--0--0-0-0-0-0-0-0-0-|
 |-0--0--0-0-0-0-0-0-0-0-|-0--0--0-0-0-0-0-0-0-0-|
 |-0--0--0-0-0-0-0-0-0-0-|-0--0--0-0-0-0-0-0-0-0-|

Chorus
[Asus2]Gtr I[F#m]
[E]| [E]| [E]| [E]| [E]| [E]| [E]| [E]| [E]| [E]| [E]| [E]| [E]| [E]| [E]| [E]|
[/] [/] [/] [/] [/] [/] [/] [/] [/] [/] [/] [/] [/] [/] [/] [/] 
Gtr II
E E E Q E +S E. E E E Q E +S E.
 
 ||-----------0---------0----|----------0---------0----|
 ||o--------------0-(0)------|--------------0-(0)------|
 ||--13h14-------------------|-13h14-------------------|
 ||--------14----------------|-------14----------------|
 ||o-------------------------|-------------------------|
 ||--------------------------|-------------------------|

[D5]  
[E]| [E]| [E]| [E]| [E]| [E]| [E]| [E]| [E]| [E]| [E]| [E]| [E]| [E]| [E]| [E]|
[/] [/] [/] [/] [/] [/] [/] [/] [/] [/] [/] [/] [/] [/] [/] [/]  
W W
 
 |-----------------|------------------||
 |-----------------|-----------------o||
 |-----------------|------------------||
 |-----------------|------------------||
 |-----------------|-----------------o||
 |-----------------|------------------||

Bridge
N.C.
Gtr I
E. S S S S S S S S S E S S S S S S S S S S S S S S S S S S
 
 |------------------------------------|----------------------------------------|
 |-9--9-9-9-9S10-10-10-10-10-10-10-10-|----------------------------------------|
 |------------------------------------|-9-9-9-9-9-9-9-9-9-9S11-11-11-11-11-11--|
 |-6--6-6-6-6S=7--7--7--7--7--7--7--7-|----------------------------------------|
 |------------------------------------|-7-7-7-7-7-7-7-7-7-7S=9--9--9--9--9--9--|
 |------------------------------------|----------------------------------------|

E. S S S S S S S S S E S S S S S S S S S S S S S S S S S S
 
 |------------------------------------|----------------------------------|
 |-9--9-9-9-9S10-10-10-10-10-10-10-10-|----------------------------------|
 |------------------------------------|-9-9-9-9-9-9-9-9-9-9S7-7-7-7-7-7--|
 |-6--6-6-6-6S=7--7--7--7--7--7--7--7-|----------------------------------|
 |------------------------------------|-7-7-7-7-7-7-7-7-7-7S5-5-5-5-5-5--|
 |------------------------------------|----------------------------------|

E. E. E S S S S S S S S S S S S S S S S S S S S S S S S
 
 |----------------------------------|---------------------------------------|
 |-9--5--10-10-10-10-10-10-10-10-10-|---------------------------------------|
 |----------------------------------|-9-9-9-9-9-9-9-9-9-9S11-11-11-11-11-11-|
 |-6--2---7--7--7--7--7--7--7--7--7-|---------------------------------------|
 |----------------------------------|-7-7-7-7-7-7-7-7-7-7S=9--9--9--9--9--9-|
 |----------------------------------|---------------------------------------|

E. E. E S S S S S S S S
 
 |----------------------------------|
 |-9--5--10-10-10-10-10-10-10-10-10-|
 |----------------------------------|
 |-6--2---7--7--7--7--7--7--7--7--7-|
 |----------------------------------|
 |----------------------------------|

[D5]Q [E5]E. S [D5E5]E S S S S S S [F#sus2]S S S S E [F#m]S S S S E Q
 
 |-----------------------|------------------------|
 |-----------------------|------------------------|
 |-----------------------|------------------------|
 |-0--2--2-0-2-2-2-2-2-2-|-6-6-6-6---7-7-7-7------|
 |-0--2--2-0-2-2-2-2-2-2-|-4-4-4-4---4-4-4-4------|
 |-0--2--2-0-2-2-2-2-2-2-|-4-4-4-4---4-4-4-4------|

Guitar Solo
[F#5]Gtr I[A5]
Q Q Q E E
| | | | |
/ / / x /
Gtr II
|-3-|
E S S S S S E +Q S S S S
 
 |----------------------------|
 |----------------------------|
 |---------6h9-6-(6)--------6-|
 |---6h7h9------------6h7h9---|
 |----------------------------|
 |----------------------------|

[D5] Q Q Q E [E5]E [F#5]Q Q Q E [A5]E
| | | | | | | | | |
/ / / x / / / / x /
+E +S +S +E S S +E Q E S S S S Q +E S S S S S S
 
 |---------------------------------|----------------------------|
 |---------------------------------|----------------------------|
 |-(6)-(6)b7r(6)-(6)---------------|----------------------------|
 |-------------------7h9-(9)-7---6-|-6h7p6-2-4--(4)-x-x-4h6-7---|
 |---------------------------------|--------------------------7-|
 |---------------------------------|----------------------------|

[D5]Q Q Q E [E5]E [F#5]Q Q [E5] Q Q
| | | | | | | | |
/ / / x / / / / /
Q. Q E +E E Q +E S S Q +E S S
 
 |-------------------|--------------------------|
 |-------------------|--------------------------|
 |-------------------|--------------------------|
 |-------------------|--------------------------|
 |-5-----4---5-(5)-7-|-9--(9)-7-9-11--(11)-9-11-|
 |-------------------|--------------------------|

[A5]E. S E [D5]E +E E Q [E5] Q. [D5] Q [E5]E Q
| | | | | | | | | | |
/ / x / / / / / / / /
E. S E E +H S S S S S S S S S S S S S S S S
 
 |-------------------|-----------------------9----9-10-12-10-9----|
 |-------------------|----------9-10-9-10-12---12--------------12-|
 |-------------------|-11--9-11-----------------------------------|
 |-7--7-9-7-(7)------|--------------------------------------------|
 |-------------------|--------------------------------------------|
 |-------------------|--------------------------------------------|

Soft Chorus
[Asus2]W [F#m11/C#] W [D5] W
|
[/]  
>
W W W
 
 |-9----------------------------|--------------------------|------------------|
 |------------------------------|--------------------------|------------------|
 |------------------------------|--------------------------|------------------|
 |------------------------------|--------------------------|------------------|
 |------------------------------|--------------------------|------------------|
 |------------------------------|--------------------------|------------------|

|
| Gtr III
| E E E E E E E E E E E E E E E E E E E E E E E E
 
 |-0-0-0-0--0----------0---0--0-|--0------0---0--0-0-0-0-0-|------------------|
 |-0-0-0-0--0----------0---0--0-|--0------0---0--0-0-0-0-0-|--3-3-3-3-3-3-3-3-|
 |-2-2-2-2--2----------2---2--2-|--2------2---2--2-2-2-2-2-|--2-2-2-2-2-2-2-2-|
 |-2-2-2-2--2----------2---2--2-|--4------4---4--4-4-4-4-4-|--0-0-0-0-0-0-0-0-|
 |-0-0-0-0--0----------0---0--0-|--4------4---4--4-4-4-4-4-|--0-0-0-0-0-0-0-0-|
 |------------------------------|--------------------------|--0-0-0-0-0-0-0-0-|

|
| Gtr IV
| H S +E. +Q S +E. +Q H W
 
 |------------------------------|--------------------------|------------------|
 |---------10b12==(10)---(10)---|-10r(10)---(10)---9-------|-10---------------|
 |------------------------------|--------------------------|------------------|
 |------------------------------|--------------------------|------------------|
 |------------------------------|--------------------------|------------------|
 |------------------------------|--------------------------|------------------|

Gtr III[Asus2] [F#m11/C#]
[E] [E] [E] [E] [E] [E] [E] [E] [E] [E] [E] [E] [E] [E] [E] [E] [E] [E] [E] [E] [E] [E] [E] [E]  
 
 |--------------------|--0--0--0-0-0-0--0-----0-|--0--0--0-0-0-0--0-----0-|
 |---3--3-3-3-3-3-3-3-|--0--0--0-0-0-0--0-----0-|--0--0--0-0-0-0--0-----0-|
 |---2--2-2-2-2-2-2-2-|--2--2--2-2-2-2--2-----2-|--2--2--2-2-2-2--2-----2-|
 |---0--0-0-0-0-0-0-0-|--2--2--2-2-2-2--2-----2-|--4--4--4-4-4-4--4-----4-|
 |---0--0-0-0-0-0-0-0-|--0--0--0-0-0-0--0-----0-|--4--4--4-4-4-4--4-----4-|
 |---0--0-0-0-0-0-0-0-|-------------------------|-------------------------|

|
| Gtr IV
| +W E E E Q E +S E. E E E Q E +S E.
 
 |--------------------|----------0---------0----|----------0---------0----|
 |-(10)---------------|--------------0-(0)------|--------------0-(0)------|
 |--------------------|-13h14-------------------|-13h14-------------------|
 |--------------------|-------14----------------|-------14----------------|
 |--------------------|-------------------------|-------------------------|
 |--------------------|-------------------------|-------------------------|

[D5]Gtr I
 
 PM------------------|

[E] [E] [E] [E] [E] [E] [E] [E] [E] [E] [E] [E] [E] [E] [E] [E]  
 
 |-----------------|-----------------|
 |-----------------|-----------------|
 |-2---------------|-----------------|
 |-0---------------|---------0-0-0-0-|
 |-0-0-0-0-0-0-0-0-|-0-0-0-0-0-0-0-0-|
 |-0-0-0-0-0-0-0-0-|-0-0-0-0-0-0-0-0-|

[Asus2]Gtr I[F#m]
[E]| [E]| [E]| [E]| [E]| [E]| [E]| [E]| [E]| [E]| [E]| [E]| [E]| [E]| [E]| [E]|
[/] [/] [/] [/] [/] [/] [/] [/] [/] [/] [/] [/] [/] [/] [/] [/] 
Gtr II
E E E Q E +S E. E E E Q E +S E.
 
 ||-----------0---------0----|----------0---------0----|
 ||o--------------0-(0)------|--------------0-(0)------|
 ||--13h14-------------------|-13h14-------------------|
 ||--------14----------------|-------14----------------|
 ||o-------------------------|-------------------------|
 ||--------------------------|-------------------------|

[D5]  
[E]| [E]| [E]| [E]| [E]| [E]| [E]| [E]| [E]| [E]| [E]| [E]| [E]| [E]| [E]| [E]|
[/] [/] [/] [/] [/] [/] [/] [/] [/] [/] [/] [/] [/] [/] [/] [/]  
W W
 
 |-----------------|------------------||
 |-----------------|-----------------o||
 |-----------------|------------------||
 |-----------------|------------------||
 |-----------------|-----------------o||
 |-----------------|------------------||

[F#sus2]Gtr I[F#m]
S S S S E S S S S E Q W
 
 |------------------------|------*|
 |------------------------|------*|
 |------------------------|------*|
 |-6-6-6-6---7-7-7-7------|------*|
 |-4-4-4-4---4-4-4-4------|------*|
 |-4-4-4-4---4-4-4-4------|------*|
 --------------------------------------------------------------------------------

Duration Legend
 
 ---------------
 W - whole; H - half; Q - quarter; E - 8th; S - 16th; T - 32nd; X - 64th; a - acciaccatura

+ - note tied to previous; . - note dotted; .. - note double dotted
Uncapitalized letters represent notes that are staccato (1/2 duration)
Irregular groupings are notated above the duration line
Duration letters will always appear directly above the note/fret number it represents the
duration for. Duration letters with no fret number below them represent rests. Multi-
bar rests are notated in the form Wxn, where n is the number of bars to rest for. Low
melody durations appear below the staff
Tablature Legend
 
 ----------------

h - hammer-on
p - pull-off
b - bend
pb - pre-bend
r - bend release (if no number after the r, then release immediately)
/\ - slide into or out of (from/to "nowhere")
s - legato slide
S - shift slide
<n> - natural harmonic
(n) - artificial harmonic
n(n) - tapped harmonic
~ - vibrato
tr - trill
T - tap
TP - trem. picking
PM - palm muting
\n/ - tremolo bar dip; n = amount to dip
\n - tremolo bar down
n/ - tremolo bar up
/n\ - tremolo bar inverted dip
= - hold bend; also acts as connecting device for hammers/pulls
<> - volume swell (louder/softer)
x - on rhythm slash represents muted slash
o - on rhythm slash represents single note slash
Misc Legend
 
 -----------

| - bar
|| - double bar
||o - repeat start
o|| - repeat end
*| - double bar (ending)
: - bar (freetime)
$ - Segno
& - Coda
Tempo markers - <E/E./Q/Q./H/H.> = BPM(8/16=s8/s16), where s8 = swing 8ths, s16 = swing 16ths

Important: The song above is NOT stored on the Chordie server. The original song is hosted at www.azchords.com. Chordie works as a search engine and provides on-the-fly formatting. Chordie does not index songs against artists'/composers' will. To remove this song please click here.

Text color:
Chord color:
Chord grids: 
Font size:    
Page size: 

A5 Asus2 D5 E E5 F#5 F#m F#sus2
Rate #1 of 4 versions

Jango Player

Login - add to songbook

SHARE PAGE  




You need to log in to post comments