Guitar Tabs, Chords and Lyrics
Major upgrade!! After one year development the new version of Chordie is now online! Please give feedback.


Sempurna  Andra and the BackBone

Andra and the Backbone - Sempurna
I dedicated this to Atiqqah,,
she introduced me to this song,,
thanks because it is a great song.
Standard Tuning with Capo on 2nd fret
Chords;
[intro] D D
[verse] D Bm G-A Bm
[bridge] G A Bm Bm G A
[cborus] D A G D A G Bm F#m G Bm F#m G E D Bm
Tabs;
Into:
[D] 
 
 E -------------------------------------------------|
 B -3-------3---2-------2---0-------0---2-------2---|
 G -----2-----------2-----------2-----------2-------|
 D -0-0---0---0-0-0---0---0-0-0---0---0-0-0---0---0-|
 A -------------------------------------------------|
 E -------------------------------------------------|

[D] 
 
 E -------------------------------------------------|
 B -3-------3---2-------2---0-------0---2-------2---|
 G -----2-----------2-----------2-----------2-------|
 D -0-0---0---0-0-0---0---0-0-0---0---0-0-0---0---0-|
 A -------------------------------------------------|
 E -------------------------------------------------|

Verse:
[D] 
 
 E -------------------------------------------------|
 B -3-------3---2-------2---0-------0---2-------2---|
 G -----2-----------2-----------2-----------2-------|
 D -0-0---0---0-0-0---0---0-0-0---0---0-0-0---0---0-|
 A -------------------------------------------------|
 E -------------------------------------------------|

[Bm] 
 
 E -------------------------------------------------|
 B -3-------3---2-------2---0-------0---2-------2---|
 G -----2-----------2-----------2-----------2-------|
 D -------------------------------------------------|
 A -2-2---2---2-2-2---2---2-2-2---2---2-2-2---2---2-|
 E -------------------------------------------------|

[G] [A] 
 
 E -2-------2---0-------0---2-------2---0-------0---|
 B -----3-----------3-----------3-----------3-------|
 G -------------------------------------------------|
 D -------------------------------------------------|
 A -------------------------0-0---0---0-0-0---0---0-|
 E -3-3---3---3-3-3---3---3-------------------------|

[Bm] 
 
 E -------------------------------------------------|
 B -3-------3---2-------2---0-------0---2-------2---|
 G -----2-----------2-----------2-----------2-------|
 D -------------------------------------------------|
 A -2-2---2---2-2-2---2---2-2-2---2---2-2-2---2---2-|
 E -------------------------------------------------|

Bridge:
[G] [A] 
 
 E -5-----------5-----------5-----------5-----------|
 B -----5-----------5-----------5-----------5-------|
 G ---------7-----------7-----------7-----------7---|
 D -------------------------------------------------|
 A -----------------------0-0-0---0---0-0-0---0---0-|
 E -3-3---3---3-3-3---3-----------------------------|

[Bm] 
 
 E -5-----------5-----------5-----------5-----------|
 B -----5-----------5-----------5-----------5-------|
 G ---------7-----------7-----------7-----------7---|
 D -------------------------------------------------|
 A -------------------------------------------------|
 E -7-7---7---7-7-7---7---7-7-7---7---7-7-7---7---7-|

[G] [A] 
 
 E -5-----------5-----------5-----------0-x---------|
 B -----5-----------5-----------5---------x---------|
 G ---------7-----------7-----------7---6-x---------|
 D ---------------------------------------x---------|
 A -----------------------0-0-0---0---0-0-x---------|
 E -3-3---3---3-3-3---3-------------------x---------|

Chorus:
[D] [A] [G] 
 
 E ----------------------------2-----------2------------|
 B -3-------3----2h3------2--------3-----------3--------|
 G -----2-------------2----------------0-----------0----|
 D -0-0---0---0-----------------------------------------|
 A --------------0--0---0---0---------------------------|
 E ----------------------------3-3---3---3-3-3---3---3--|

[D] [A] [G] 
 
 E ----------------------------2-----------2------------|
 B -3-------3----2h3------2--------3-----------3--------|
 G -----2-------------2----------------0-----------0----|
 D -0-0---0---0-----------------------------------------|
 A --------------0--0---0---0---------------------------|
 E ----------------------------3-3---3---3-3-3---3---3--|

[Bm] [F#m] [G] 
 
 E ----------------------------2-----------2------------|
 B -3-------3----2h3------2--------3-----------3--------|
 G -----2-------------2----------------0-----------0----|
 D -----------------------------------------------------|
 A -2-2---2---2-----------------------------------------|
 E --------------2--2---2---2--3-3---3---3-3-3---3---3--|

[Bm] [F#m] [G] [E] 
 
 E ----------------------------2--------------------2p0-0----|
 B -3-------3----2h3------2--------3--------------2-------3--|
 G -----2-------------2----------------0--------1------------|
 D ----------------------------------------------------------|
 A -2-2---2---2-------------------------------2--------------|
 E --------------2--2---2---2--3-3---3---3--0----------------|

[D] 
 
 E -------------------------------------------------|
 B -3-------3---2-------2---0-------0---2-------2---|
 G -----2-----------2-----------2-----------2-------|
 D -0-0---0---0-0-0---0---0-0-0---0---0-0-0---0---0-|
 A -------------------------------------------------|
 E -------------------------------------------------|

[Bm] 
 
 E -------------------------------------------------|
 B -3-------3---2-------2---0-------0---2-------2---|
 G -----2-----------2-----------2-----------2-------|
 D -------------------------------------------------|
 A -2-2---2---2-2-2---2---2-2-2---2---2-2-2---2---2-|
 E -------------------------------------------------|
 --------------------------------------------------------------------------------

Without Capo ;-)
Standard Tuning
Chords;
[intro] E E
[verse] E C#m A-B C#m
[bridge] A B C#m C#m A B
[cborus] E B A E B A C#m G#m A C#m G#m A F# E C#m
Tabs;
Intro:
[E] 
 
 E -------------------------------------------------|
 B -5-------5---4-------4---2-------2---4-------4---|
 G -----4-----------4-----------4-----------4-------|
 D -2-2---2---2-2-2---2---2-2-2---2---2-2-2---2---2-|
 A -------------------------------------------------|
 E -------------------------------------------------|

[E] 
 
 E -------------------------------------------------|
 B -5-------5---4-------4---2-------2---4-------4---|
 G -----4-----------4-----------4-----------4-------|
 D -2-2---2---2-2-2---2---2-2-2---2---2-2-2---2---2-|
 A -------------------------------------------------|
 E -------------------------------------------------|

Verse:
[E] 
 
 E -------------------------------------------------|
 B -5-------5---4-------4---2-------2---4-------4---|
 G -----4-----------4-----------4-----------4-------|
 D -2-2---2---2-2-2---2---2-2-2---2---2-2-2---2---2-|
 A -------------------------------------------------|
 E -------------------------------------------------|

[C#m] 
 
 E -------------------------------------------------|
 B -5-------5---4-------4---------------4-------4---|
 G -----4-----------4-------6---4---6-------4-------|
 D -------------------------------------------------|
 A -4-4---4---4-4-4---4---4-4-4---4---4-4-4---4---4-|
 E -------------------------------------------------|

[A] [B] 
 
 E -4-------4---------------4-------4---2-------2---|
 B -----5-------7---5---7-------5-----------5-------|
 G -------------------------------------------------|
 D -------------------------------------------------|
 A -------------------------2-2---2---2-2-2---2---2-|
 E -5-5---5---5-5-5---5---5-------------------------|

[C#m] 
 
 E -------------------------------------------------|
 B -5-------5---4-------4---------------4-------4---|
 G -----4-----------4-------6---4---6-------4-------|
 D -------------------------------------------------|
 A -4-4---4---4-4-4---4---4-4-4---4---4-4-4---4---4-|
 E -------------------------------------------------|

Bridge:
[A] [B] 
 
 E -7-----------7-----------7-----------7-----------|
 B -----7-----------7-----------7-----------7-------|
 G ---------9-----------9-----------9-----------9---|
 D -------------------------------------------------|
 A -0-0---0---0-0-0---0-----------------------------|
 E -----------------------7-7-7---7---7-7-7---7---7-|

[C#m] 
 
 E -7-----------7-----------7-----------7-----------|
 B -----7-----------7-----------7-----------7-------|
 G ---------9-----------9-----------9-----------9---|
 D -------------------------------------------------|
 A -------------------------------------------------|
 E -9-9---9---9-9-9---9---9-9-9---9---9-9-9---9---9-|

[A] [B] 
 
 E -7-----------7-----------7-------------x---------|
 B -----7-----------7-----------7-------7-x---------|
 G ---------9-----------9-----------9---8-x---------|
 D ---------------------------------------x---------|
 A -0-0---0---0-0-0---0-------------------x---------|
 E -----------------------7-7-7---7---7-7-x---------|

Chorus:
[E] [B] [A] 
 
 E ----------------------------4-----------5------------|
 B -5-------5----4h5------4--------5-----------5--------|
 G -----4-------------4---------------------------------|
 D -2-2---2---2------------------------7-----------7----|
 A --------------2--2---2---2---------------------------|
 E ----------------------------5-5---5---5-5-5---5---5--|

[E] [B] [A] 
 
 E ----------------------------4-----------4------------|
 B -5-------5----4h5------4--------5-----------5--------|
 G -----4-------------4---------------------------------|
 D -2-2---2---2------------------------7-----------7----|
 A --------------2--2---2---2---------------------------|
 E ----------------------------5-5---5---5-5-5---5---5--|

[C#m] [G#m] [A] 
 
 E ----------------------------4-----------4------------|
 B -5-------5----4h5------4--------5-----------5--------|
 G -----4-------------4---------------------------------|
 D ------------------------------------7-----------7----|
 A -4-4---4---4-----------------------------------------|
 E --------------4--4---4---4--5-5---5---5-5-5---5---5--|

[C#m] [G#m] [A] [F#] 
 
 E ----------------------------4--------------------4p2-2----|
 B -5-------5----4h5------4--------5--------------4-------5--|
 G -----4-------------4-------------------------3------------|
 D ------------------------------------7---------------------|
 A -4-4---4---4-------------------------------4--------------|
 E --------------4--4---4---4--5-5---5---5--2----------------|

[E] 
 
 E -------------------------------------------------|
 B -5-------5---4-------4---2-------2---4-------4---|
 G -----4-----------4-----------4-----------4-------|
 D -2-2---2---2-2-2---2---2-2-2---2---2-2-2---2---2-|
 A -------------------------------------------------|
 E -------------------------------------------------|

[C#m] 
 
 E -------------------------------------------------|
 B -5-------5---4-------4---2-------2---4-------4---|
 G -----4-----------4-----------4-----------4-------|
 D -------------------------------------------------|
 A -4-4---4---4-4-4---4---4-4-4---4---4-4-4---4---4-|
 E -------------------------------------------------|

MFZ~

Important: The song above is NOT stored on the Chordie server. The original song is hosted at www.azchords.com. Chordie works as a search engine and provides on-the-fly formatting. Chordie does not index songs against artists'/composers' will. To remove this song please click here.

Text color:
Chord color:
Chord grids: 
Font size:    
Page size: 

A B Bm C#m D E F# F#m G G#m
Rate #2 of 11 versions

Jango Player

Login - add to songbook

SHARE PAGE  




You need to log in to post comments