Guitar Tabs, Chords and Lyrics
Update 25:10. 13:00. Site is back up running again. Songbooks are recovered. Woring on getting search back up..


Auf anderen Wegen  Andreas Bourani

Capo 4
Intro: C, C4, C, C4, Am, F
Tab for Intro:
 
 e|--------------------------|------------------------|-------------------------|
 B|---------------1----------|-------------1----------|-------------1-----------|
 G|---------0--------0-----0-|-------0--------0-----0-|-------0--------0-----0--|
 D|------2-----2--------2----|----2-----2--------2----|----2-----2--------2-----|
 A|----3---------------------|-3----------------------|-3-----------------------|
 E|--------------------------|------------------------|-------------------------|
 e|--------------------------|-------------------------|------------------------|
 B|--------------1-----------|--------------1----------|------------1-----------|
 G|--------0--------0------0-|--------0--------0-----0-|-------0-------0-----0--|
 D|-----2-----2--------2-----|-----2-----2--------2----|----2-----2-------2-----|
 A|--3-----------------------|--0----------------------|-0----------------------|
 E|--------------------------|-------------------------|------------------------|
 e|-----------------------------------------------------------------------------|
 B|-------------------1--------------------------------1------------------------|
 G|----------0------------0-------0-----------0---------0-----0-----------------|
 D|------2------2-------------2-----------2------2---------2--------------------|
 A|-----------------------------------------------------------------------------|
 E|--1----------------------------------1---------------------------------------|

[C]Du willst gehen, ich lieber springen
Wenn du re[C4]dest, will ich singen
Du schlägst W[C]urzeln, ich muss fliegen[C4]
Wir haben die Stille um uns t[Am]otgeschwiegen
Wo ist die Liebe ge[F]blieben
Ich fühl' mich j[C]ung und du dich alt
So fallen wir [C4]um, uns fehlt der Halt
Wir m[C]ssen uns bewegen[C4]
Ich bin dafür, du d[Am]agegen
Wir gehen auf anderen W[F]egen
Chorus:
Mein Herz schlägt s[C]chneller als deins,
Sie schlagen ni[Em]cht mehr wie eins
Wir leuchten he[Am]ller allein,
Vielleicht muss es s[F]ooo sein
Mein Herz schlägt sc[C]hneller als deins,
Sie schlagen n[Em]icht mehr wie eins
Wir leuchten h[Am]eller allein,
Vielleicht muss es so[F]ooo sein
Bridge:
[Dm]Ich geb' dich frei
Ich werd' dich li[Am]eben
Bist ein T[Dm]eil von mir geb[Am]lieben
Geb' dich [Dm]frei
Ich werd' dich li[Am]eben
[G]Frei - ich werd' dich l[Dm]ieben
Chorus:
Mein Herz schlägt s[C]chneller als deins,
Sie schlagen n[Em]icht mehr wie eins
Wir leuchten he[Am]ller allein,
Vielleicht muss es s[F]ooo sein
Mein Herz schlägt sc[C]hneller als deins,
Sie schlagen n[Em]icht mehr wie eins
Wir leuchten he[Am]ller allein,
Vielleicht muss es so[F]ooo sein
Outro: C, C4, Am, F (Same as Intro)

Important: The song above is NOT stored on the Chordie server. The original song is hosted at www.azchords.com. Chordie works as a search engine and provides on-the-fly formatting. Chordie does not index songs against artists'/composers' will. To remove this song please click here.

Text color:
Chord color:
Chord grids: 
Font size:    
Page size: 

Am C C4 Dm Em F G
Rate #1 of 2 versions

Login - add to songbook

SHARE PAGE  




You need to log in to post comments