Guitar Tabs, Chords and Lyrics
Major upgrade!! After one year development the new version of Chordie is now online! Please give feedback.


Drifting   Andy McKee

 
 ||--------------|------------[12]|-------------|-----------[12]----||
 ||o-------------|------------[12]|-------------|-----------[12]-o--||
 ||--------------|------------[12]|-------------|-----------[12]----||
 ||--------------|------------[12]|-------------|-----------[12]----||
 ||o-2----2------|-2----------[12]|-2----2------|-2---------[12]-o--||
 ||--2----2------|-2----------[12]|-2----2------|-2---------[12]----||

 


 [+] [+] [+] [+] [+] [+] [+] [+]  

 
 |------0-----------|-----0------0----|-----0------------|----------0-----|
 |--------0---------|---0-----------0-|-------0----------|---0----------0-|
 |---11-----0-(0)-6-|------6-(6)------|---6-----0-(0)--4-|-----7s9-----6--|
 |------------------|-----------------|------------------|----------------|
 |-2--------2-------|-5-------7-------|-2-------2--------|-5------7-------|
 |-2--------2-------|-5-------7-------|-2-------2--------|-5------7-------|

 


 [+] [+] [+] [+]  

 
 |------------0------------|-----0-------0-----|
 |--------------0----------|---0------------0--|
 |---11h12p11-----0-(0)--6-|------6-(6)--------|
 |-------------------------|-------------------|
 |-2--------------2--------|-5-------7---------|
 |-2--------------2--------|-5-------7---------|

 


 [+] [+] [+] [+]  

 
 |-----0------------|----------0-----|
 |-------0----------|---0------------|
 |---6-----0-(0)--4-|----7s9-----11s7|
 |------------------|----------------|
 |-2-------2--------|-5------7-------|
 |-2-------2--------|-5------7-------|
 |--------0-----------0-0-(0)-|-(0)-0----0--0-(0)-|
 |----------------------0-(0)-|-(0)-0----0--0-(0)-|
 |----------11-(11)S9---0h=9--|-(9)-9----9--9h11--|
 |---9-11---------------0-(0)-|-(0)-0----0--0-(0)-|
 |----------------------9-(9)-|-(9)-9----9--9-(9)-|
 |-9--------------------0-(0)-|-(0)-0----0--0-(0)-|
 |--------0-----------0-0-(0)-|-(0)-0----0-(0)-----|
 |----------------------0-(0)-|-(0)-0----0-(0)---0-|
 |----------11-(11)S9---0h=9--|-(9)-9----9h11------|
 |---9-11---------------0-(0)-|-(0)-0----0-(0)-9---|
 |----------------------9-(9)-|-(9)-9----9-(9)-----|
 |-9--------------------0-(0)-|-(0)-0----0-(0)-----|

 


 


 [3/4]  


 

 
 |--------0---------0-0-(0)-|-(0)-0--0---0------||
 |--------------------0-(0)-|-(0)-0--0---0------||
 |----------9-(9)S7---0h6---|-(6)-6--6---6------||
 |-5-7-/9-------------7-(7)-|-(7)-7--7---7------||
 |-5------------------7-(7)-|-(7)-7--7---7------||
 |-5------------------7-(7)-|-(7)-7--7---7------||

 


 


 [4/4]  


 

 
 |-(0)--------0---------0-0--|-(0)---------------|
 |-(0)--------------------0--|-(0)-----------0---|
 |-(0)----------9-(9)S7---2--|-(2)--2-(2)-2----0-|
 |--7--(7)-h9-------------0--|-(0)--0-(0)-0------|
 |--5---------------------0--|-(0)--0h=2--0------|
 |--5---------------------0--|-(0)--0-(0)-0------|
 |-----0--------0--|-----0-------0--|-----0--------0--|-----0-------0--|
 |-------0------0--|-----0-------0--|-------0------0--|-----0-------0--|
 |---0----------0--|-----0-------0--|---0----------0--|-----0-------0--|
 |-4-------p0h2-0h4|--p0------------|-4-------p0h2-0h7|---5------------|
 |-2---------------|-5-----9--p7----|-2---------------|-5-----9--h7----|
 |-2---------------|-5-------7------|-2---------------|-5-------7------|

 


 


 

 
 |-----0--------0--|-----0-------0--|----0-----0--0--|-------0---------|
 |-------0------0--|-----0-------0--|------0---0--0--|-------0---------|
 |---0----------0--|-----0-------0--|-11-----0-0--0--|-------0---------|
 |-4-------p0h2-0h7|---5---9---7----|----------0--0--|-------0---------|
 |-2---------------|-5-------7------|--2----------0--|-2-0-2------2-0--|
 |-2---------------|-5-------7------|--2-------------|-2-0-2------2-0--|

 


 


 

 
 |--------0------0-|-0--0--0-----------|----0---0---0------[12]|
 |-----------------|-0--0--0-----------|----0---0---0------[12]|
 |-----------------|-9--9--9-----------|----0---4---6------[12]|
 |--9s-11--11s-9---|-10-10-10----------|----4---5---7----------|
 |-----------------|-10-10-10----------|-0h-2---5---7-7p0------|
 |-9---------------|-10-10-10----------|-0h-2---5---7-7p0------|


Important: The song above is NOT stored on the Chordie server. The original song is hosted at www.azchords.com. Chordie works as a search engine and provides on-the-fly formatting. Chordie does not index songs against artists'/composers' will. To remove this song please click here.

This song is displayed as text-only. Transposing and tuning is only available for chordpro-songs.
Rate #2 of 4 versions

Jango Player

Login - add to songbook

SHARE PAGE  




You need to log in to post comments