Guitar Tabs, Chords and Lyrics
Server problems seems to be fixed. Chordie has been experiencing problems with songs disappearing. These issues now seems to be fixed, but still verifying the fix. If you find anything strange, please email admin@chordie.com.


All We Want Is Love  Ane Brun

[Intro and Instrumental] 
[1] [D] [2] [D] [3] [Em]  
 
 D |-------------------------|-------------------------|-------------------------|
 A |-------------------------|-------------------------|-------------------------|
 F#|----1--1-p0-----0--------|----1--1-p0-----0--------|----1--1-p0-----0--------|
 D |----0--0--0--2-----0-----|----0--0--0--2-----0-----|----2--2--2--2-----2-----|
 A |-------------------------|-------------------------|-------------------------|
 D |-0--------------------0--|-0--------------------0--|-2--------------------2--|

[4] [Em] [5] [G] [6] [G]  
 
 D |-------------------------|--------------------|-------------------0---|
 A |-------------------------|--------------------|----------------4------|
 F#|----1--1-p0-----0--------|----5--5--5--5------|----5--5--5--5---------|
 D |----2--2--2--2-----2-----|----5--5--5--5------|----5--5--5------------|
 A |-------------------------|--------------------|-----------------------|
 D |-2--------------------0--|-5------------------|-5---------------------|

7 D 8 D
 
 D |-------------------------|-------------------------|
 A |-------------------------|-------------------------|
 F#|----1--1-p0-----0--------|----1--1-p0-----0--------|
 D |----0--0--0--2-----0-----|----0--0--0--2-----0-----|
 A |-------------------------|-------------------------|
 D |-0--------------------0--|-0--------------------0--|

[Verse and Cborus] 
Same as the intro but the G is played like this.
[5] [G] [6] [G]  
 
 D |-------------------------|-------------0-----------|
 A |----------------4--4-----|----4--4--------4--------|
 F#|----5--5--------5--5-----|----5--5-----------5-----|
 D |----5--5-----------------|-------------------------|
 A |-------------------------|-------------------------|
 D |-5--------5--5--------5--|-5--------5-----------5--|

In the last chorus the G and Gm is played like this.
[5] [G] [6] [Gm]  
 
 D |-------------------------|-------------0-----------|
 A |----------------4--4-----|----------------0--------|
 F#|----5--5--------5--5-----|----4--4-----------4-----|
 D |----5--5-----------------|----5--5-----------------|
 A |-------------------------|-------------------------|
 D |-5--------5--5--------5--|-5--------5-----------5--|

[Bridge] 
This repeats through the whole bridge.
[D]  
 
 D |-------------------------|
 A |-------------------------|
 F#|----0--0--0--------------|
 D |----4--4--0-----0-----0--|
 A |-------------4-----------|
 D |-0-----------------5-----|

[Intro] 
[D] [Em] [G] [D]  
[Verse 1] 
[D]On and on, we wait for it
We[Em] heal our wounds and move forward
[G]All we want is [D]love
It [D]breaths for us, it feeds us
[Em]Even though we don't really know it
[G]All we want is [D]love
[Cborus] 
[D]All we want is [Em]love
[G]All we want is [D]love
[Verse 2] 
[D]It's as light as butterflies
And [Em]when we miss it we fantasise
[G]All we want is [D]love
It [D]wakes us up early in the morning
[Em]Or helps us sleep all through the night
[G]All we want is [D]love
[Cborus] 
[D]All we want is [Em]love
[G]All we want is [D]love
[Bridge] 
[D]We give up our names for it
[D]We arrange parades fighting for it
[D]We buy castles and gold to get it
[D]And we say it through countless songs
[Cborus] 
[G]All we want is [D]love
[G]All we [Gm]want is [D]love
[Instrumental] 
D Em G D x2
[Verse 3] 
[D]We reflect ourselves in it
[Em]To make sure that we exist
[G]All we want is [D]love

Important: The song above is NOT stored on the Chordie server. The original song is hosted at www.azchords.com. Chordie works as a search engine and provides on-the-fly formatting. Chordie does not index songs against artists'/composers' will. To remove this song please click here.

Text color:
Chord color:
Chord grids: 
Font size:    
Page size: 

D Em G Gm
Rate #1 of 1 versions

Login - add to songbook

SHARE PAGE  



You need to log in to post comments