Guitar Tabs, Chords and Lyrics
Server problems seems to be fixed. Chordie has been experiencing problems with songs disappearing. These issues now seems to be fixed, but still verifying the fix. If you find anything strange, please email admin@chordie.com.


So You Did It Again  Ane Brun

(Intro) F Gm
 
 e|------------------1--------4-------------------------------------|
 B|------------------1--------4-------------------------------------|
 G|------------------2--------4-------------------------------------| [x3]
 D|---0--1--0--------3--------6-------------------------------------|
 A|------------3-----3--------6-------------------------------------|
 E|1-----------------1--------4-------------------------------------|

[G] [F#]  
 
 e|---3------2------------------------------------------------------|
 B|---3------2------------------------------------------------------|
 G|---4------3------------------------------------------------------|
 D|---5------4------------------------------------------------------|
 A|---5------4------------------------------------------------------|
 E|---3------2------------------------------------------------------|

So you did it again[F] [Gm]
I guess you've done this before [F] [Gm]
You lay all your time and money [F] [Gm]
On t[G]he f**kin' wr[F#]ong horse
So you did it again[F] [Gm]
I guess you've been here before[F] [Gm]
A little kissin' and a lovin'[F] [Gm]
And your best judgement
Just lying[G] on the floor
Just lying[F#] on the floor
So you did it once more[F] [Gm]
I guess you closed your eyes[F] [Gm]
Your heartbeat ringin' in your ears
Your fing[G]ers through[F#] his hair
Oh why oh why oh why[F] [Gm]
Oh why oh why yeah[F] [Gm]
Outro: G F# F

Important: The song above is NOT stored on the Chordie server. The original song is hosted at www.azchords.com. Chordie works as a search engine and provides on-the-fly formatting. Chordie does not index songs against artists'/composers' will. To remove this song please click here.

Text color:
Chord color:
Chord grids: 
Font size:    
Page size: 

F F# G Gm
Rate #1 of 1 versions

Login - add to songbook

SHARE PAGE  



You need to log in to post comments