Guitar Tabs, Chords and Lyrics
Server problems seems to be fixed. Chordie has been experiencing problems with songs disappearing. These issues now seems to be fixed, but still verifying the fix. If you find anything strange, please email admin@chordie.com.


All Shadows  Anna Ternheim

Anna Ternheim - All Shadows - Acoustic Live version
as play on the 2012 Tour - the album version is a bit different but the
Chors are more or less the same
Capo 4th Fret! Chords are given in relation to capo so keep in mind that
"Em" actually is G#m.
Intro
 
 ---------
 e--------------------------------------------|
 B---------0--------0----------0--------------|
 G--0---2-----0---2-----0---2-----0-----2--0--|
 D--2-2-------2-2-------0-0-------0--0--------|
 A--------------------------------------------|
 E--------------------------------------------|
 e------------------------------------|
 B------------------------------------|
 G-2-----2--2-----2--0-----0--0-----0-|
 D-4-4-5----4-4-5----2-2-4----2-2-4---|
 A------------------------------------|
 E------------------------------------|

Verse
 
 --------------------------

play alternately: Em (022000) / E/Gb (222000) and G something (x2000x) alternate with (x0000x)
or pick like this:
verse pattern (Em / G)
2x 2x
 
 e---------------------|---------------------------------------|
 B--------------------.|------(0)----(0)-----------------------|
 G-----(0)----(0)------|-------0------0------------------------|
 D------2------2-------|----0-------0--------------------------|
 A----2------2--------.|---2------0----------------------------|
 E--0------2-----------|---------------------------------------|

Intro part
 
 e--------------------------------------------|
 B---------0--------0----------0--------------|
 G--0---2-----0---2-----0---2-----0-----2--0--|
 D--2-2-------2-2-------0-0-------0--0--------|
 A--------------------------------------------|
 E--------------------------------------------|
 --------------

Intro
Em pattern
There is the one ceiling the lies
G pattern
A fine veil over your eyes
Em pattern
Even the ocean, holding the tide
G pattern
Your hopes while you‚??re slaving for time
Intro part
Em pattern
This is the one who knows no regret
G pattern
Who knows who you are You‚??ve never met but
Em pattern
One day he‚??ll find you Where ever you are
G pattern
Owner of land he never walked on
[C]All shadows,[G] even the [Dsus]sun
All shadows, even the sun
All shadows, even the sun
[Am]Without a doubt [Dsus]he knows how to count your tears
Intro
Verse
There is the one ceiling the lies
A fine veil over your eyes
Wake up one day and you‚??ll realize how
Hard you‚??ve been running most of your life
Chorus
All shadows, even the sun
All shadows, even the sun
Without a doubt he knows how to count your tears
Intro part
[C]He waves at the old with his [Em]back to the wall
[C]Waves at the young, the l[Em]ost, the bored
[Am]Giving the sad eye [Dsus]while in his mind
[Am]You‚??re not addin[Dsus]g straws to the pile
Em pattern
Maybe he‚??ll give you a few more years
G pattern
Placing the time glass on your stairs
[Am] [Em] [Dsus]  
[Am]You‚??ll blame yourself[Em], no one ever blame[Dsus]s him
All shadows,
All shadows,
All shadows, even the sun
Without a doubt he knows how to count your tears

Important: The song above is NOT stored on the Chordie server. The original song is hosted at www.azchords.com. Chordie works as a search engine and provides on-the-fly formatting. Chordie does not index songs against artists'/composers' will. To remove this song please click here.

Text color:
Chord color:
Chord grids: 
Font size:    
Page size: 

Am C Dsus Em G
Rate #1 of 2 versions

Jango Player

Login - add to songbook

SHARE PAGE  



You need to log in to post comments