Guitar Tabs, Chords and Lyrics
Major upgrade!! After one year development the new version of Chordie is now online! Please give feedback.


Madhouse   Anthrax

 
 [-------------PM--------------]
 E--------------------------------------------------|
 B--------------------------------------------------|
 G--------------------------------------------------|
 D--------------------------------------------------|
 A-2-2-2-2-2-2-2-2-2-2-2-2-2-2-2-2-7---6---5---4----|
 E-0-0-0-0-0-0-0-0-0-0-0-0-0-0-0-0---7---6---5---3p-|

 


 


 Main Riff


 


 

 
 [-------PM-------]
 E----------------------------------|
 B----------------------------------|
 G----------------------------------|
 D----------------------------------|
 A-2-2-2-2-2-2-2-2-7---6---5---4----|
 E-0-0-0-0-0-0-0-0---7---6---5---3p-| Rpt 6 X
 [-------PM-------]
 E-----------------|
 B-----------------|
 G-----------------|
 D-----------------|
 A-2-2-2-2-2-2-2-2-|
 E-0-0-0-0-0-0-0-0-|

 


 


 Verse


 

 
 [----PM---]
 E------------------------------------------------------------|
 B----------------------------------------------------3-------|
 G-4-----------7-----------------------------0--------2-------|
 D-4-----------7--------7--------4-----------0--------0-------|
 A-2-----------5--------0--------2-2-2-2-2-2------------------|
 E------------------------------------------------------------|
 [----PM---] [----PM---]
 E------------------------------------------------------------|
 B----------------------------------------------------3-------|
 G-4-----------7-----------------------------0--------2-------|
 D-4-----------7--------7--------4-----------0--------0-------|
 A-2-2-2-2-2-2-5--------0--------2-2-2-2-2-2------------------|
 E------------------------------------------------------------|

 


 Rpt 2 X


 


 Bridge


 


 

 
 [--------PM--------] h [---------PM---------]
 E------------------------------------------------------------|
 B------------------------------------------------------------|
 G------------------------------------------------------------|
 D-----------------------3p2-3p2---------------------------3--|
 A-2-------------2-----2---------2-------------2---------2----|
 E-0-0-0-1-4p1p0-0-1p0-----------0-0-0-1-4p1p0-0-1p0-0-1------|
 [--------PM--------] h [---------PM---------]
 E-----------------------------------------------------------|
 B-----------------------------------------------------------|
 G-----------------------------------------------------------|
 D-----------------------3p2-3p2-----------------------5-----|
 A-2-------------2-----2---------2-------------2-------3--6--|
 E-0-0-0-1-4p1p0-0-1p0-----------0-0-0-1-4p1p0-0-1p0-0----4--| Rpt

 


 


 [PM] [PM] [PM]h h [PM] [PM] [PM]


 

 
 E---------------------------------------------------------|
 B---------------------------------------------------------|
 G-2----2/3----3\2----5p3p0-3p2p0-2----2/3----3\2----------|
 D-2----2/3----3\2----------------2----2/3----3\2----5\4\3-|
 A---00-----00-----00---------------00-----00-----00-3\2\1-|
 E---------------------------------------------------------| Rpt
 E------------------|
 B------------------|
 G------------------|
 D------------------|
 A-7---6---5---4----|
 E---7---6---5---3p-|

 


 


 Rpt Main Riff 3 X for Chorus


 Rpt Verse, Bridge and Chorus.


 


 

 
 E---------------------------------------------|
 B---------------------------------------------|
 G---------------------------------------------|
 D-2------------------(2)----------------------|
 A-2------------------(2)----------------------|
 E-0------------------(0)----------------------|

 


 


 Backing for guitar solo is Verse riff 4 X


 


 Rpt Bridge and Chorus


 


 

 
 E------------------|
 B------------------|
 G------------------|
 D------------------|
 A-7---6---5---4----|
 E---7---6---5---3p-| Rpt 2 X


Important: The song above is NOT stored on the Chordie server. The original song is hosted at www.azchords.com. Chordie works as a search engine and provides on-the-fly formatting. Chordie does not index songs against artists'/composers' will. To remove this song please click here.

This song is displayed as text-only. Transposing and tuning is only available for chordpro-songs.
Rate #1 of 1 versions

Jango Player

Login - add to songbook

SHARE PAGE  




You need to log in to post comments