Guitar Tabs, Chords and Lyrics
Update 25:10. 13:00. Site is back up running again. Songbooks are recovered. Woring on getting search back up..


Ilona?  Apulanta

 
 -------------------------------------------------------------------------------

ILONA - Apulanta
 
 -------------------------------------------------------------------------------

I transposed this song two and a half keys higher from the original version 'cause I
it's easier to sing from this key.
So Apulanta's version of this song is in Am but this my version is in Dm.
About the Bridge: So as I wrote down there that when the bridge repeats, second guitar
the intro major third higher.
INTRO
Dm - F - C - A (then it splits into First Guitar and Second Guitar and goes like this:)
Guitar 1
 
 |-----------------------5-3-1-5-3-1-0----3-1-0-3-1-0--------------------|
 |--3---6-5-3-6-5-3-6---------------------------------2----2-3-5-5/6-5-3-|
 |-----------------------------------------------------------------------| x2
 |-----------------------------------------------------------------------|
 |-----------------------------------------------------------------------|
 |-----------------------------------------------------------------------|

Guitar 2
[Dm] [-] [F] [-] [C] [-] [A]  
[Dm] [-] [F] [-] [C] [-] [A] [-] [Dm]  
VERSE 1
[Dm]En aina voi sua ymmä[F]rtää
Oisit ees voinut yrit[C]tää
vaikka joskus tuntuu,[A] että kaikki on turhaa
[Dm]Sä koitit mulle sel[F]ittää
ei oo järkee jatkaa el[C]ämää
mä tahdoin olla sull[A]e syy jatkaa huom[Dm]iseen
CHORUS
[Dm]Sä olit[Bb] perhonen jonka[F] siivet eivä[C]t kauas kan[Dm]taneet
[Bb]Sä väsyi[F]t kylpyhuon[C]eeseen
[Bb] [F] [A] [F] 
N[Bb]yt kun öisin katson tähtiin ja sun kasvos siella nään
[Bb]Rak[C]astun uudel[Dm]leen
VERSE 2
[Dm]Et halunnut mua sun maail[F]maan
Vaikka koitin sua niin rakas[C]taa
Sä sanoit et on parempi mulle[A], et halunnut satuttaa
[Dm]Kun eilen näin sun itk[F]evän
Mä aavistin sun läh[C]tevän
Sun silmät katsoi tyhj[A]ä nuku rauhassa pik[Dm]kuinen
CHORUS
[Dm]Sä olit[Bb] perhonen jonka[F] siivet eivä[C]t kauas kan[Dm]taneet
[Bb]Sä väsyi[F]t kylpyhuon[C]eeseen
[Bb] [F] [A] [F] 
Ny[Bb]t kun öisin katson tähtiin ja sun kasvos siella nään
[Bb]Rak[C]astun uudel[Dm]leen, uudel[Bb]leen
[Bb]Rak[C]astun uudel[Dm]leen
BRIDGE
Guitar 1
 
 |-----------------------5-3-1-5-3-1-0----3-1-0-3-1-0--------------------|
 |--3---6-5-3-6-5-3-6---------------------------------2----2-3-5-6-5-3---|
 |-----------------------------------------------------------------------| x2
 |-----------------------------------------------------------------------|
 |-----------------------------------------------------------------------|
 |-----------------------------------------------------------------------|

Guitar 2
Dm - F - C - A (On the first time second guitar plays these chords)
(But when the bridge repeats, second guitar plays like this:)
 
 |--1---5-3-1-5-3-1-5----8-6-5-8-6-5-3----6-4-3-6-4-3-0----3-1-0-3-1-0-1---|
 |-------------------------------------------------------------------------|
 |-------------------------------------------------------------------------|
 |-------------------------------------------------------------------------|
 |-------------------------------------------------------------------------|
 |-------------------------------------------------------------------------|

CHORUS
[Dm]Sä olit[Bb] perhonen jonka[F] siivet eivä[C]t kauas kan[Dm]taneet
[Bb]Sä väsyi[F]t kylpyhuon[C]eeseen
[Bb] [F] [A] [F] 
Ny[Bb]t kun öisin katson tähtiin ja sun kasvos siella nään
[Bb]Rak[C]astun uudel[Dm]leen, Ja [C]kauas (Pois)
[Bb]Perhonen jonka [F]siivet eivät[C] kauas kant[Dm]aneet (Ei kauas kantaneet..)
[Bb]Sä väsyi[F]t kylpyhuon[C]eeseen (Sä oot niin kaukana jossain..)
[Bb] [F] [A] [F] 
Ku[Bb]n öisin katson tähtiin ja sun kasvos siella nään (Miks sun täytyi mennä pois,
pois..)
[Bb]Rak[C]astun uudel[Dm]leen, uudelleen ja uude[Bb]lleen
[Bb]Rak[C]astun uudel[Dm]leen
[Bb]Rak[C]astun uudel[Dm]leen

Important: The song above is NOT stored on the Chordie server. The original song is hosted at www.azchords.com. Chordie works as a search engine and provides on-the-fly formatting. Chordie does not index songs against artists'/composers' will. To remove this song please click here.

Text color:
Chord color:
Chord grids: 
Font size:    
Page size: 

A Bb C Dm F
Rate #1 of 4 versions

Jango Player

Login - add to songbook

SHARE PAGE  



You need to log in to post comments