Guitar Tabs, Chords and Lyrics
Update 25:10. 13:00. Site is back up running again. Songbooks are recovered. Woring on getting search back up..


My Oh My  Aqua

Intro:
 
 e|---------------------------------------------------------------------------|
 B|--6-------------11--8---------------5---------10------------8--------------|
 G|--7---------10------9----------13---5-------9--------7-9-10----------------|
 D|--8---8-12----------10--10--14------7--7-10-------7------------------------|
 A|---------------------------------------------------------------------------|
 E|---------------------------------------------------------------------------|
 e|---------------------------------------------------------------------------|
 B|-6----------11--8---------------13-11-10-----------------8-----------------|
 G|-7-------10-----9---9--12--10------------12-10----7-9-10-------------------|
 D|-8--8-12--------10------------------------------7--------------------------|
 A|---------------------------------------------------------------------------|
 E|---------------------------------------------------------------------------|

Chorus:
[Bb]My oh my[C] do you [Am]wanna say goodb[Dm]ye
To[Bb] have the [C]Kingdom, baby, [Am]tell me wh[Dm]y
[Bb]My oh my[C] do you w[Am]anna say goodby[Dm]e?
To [Bb]rule the c[C]ountry, baby, [A]you and I?
Verse:
[Dm]Little princess in a terrible [Bb]mess,
a kingdom [F]alone, with no [C]love to confess
[Dm]Dreams of a prince on a tall wh[Bb]ite horse,
[F]runs like a spirit by the cast[C]le walls.
[Dm]Gotta steal from the rich,[Bb] when they don't know I'm coming,
[F]gotta give to the poor, no time[C] for lovin'
[Dm]My oh my don't you cry, '[Bb]cause there is no way I'm staying,
[F]I will leave say «bye bye[C], I'm going my way...
Bridge:
If you were my King.[Dm]..
[Bb] I would be your Quee[F]n..[C]..

Important: The song above is NOT stored on the Chordie server. The original song is hosted at www.azchords.com. Chordie works as a search engine and provides on-the-fly formatting. Chordie does not index songs against artists'/composers' will. To remove this song please click here.

Text color:
Chord color:
Chord grids: 
Font size:    
Page size: 

A Am Bb C Dm F
Rate #1 of 3 versions

Jango Player

Login - add to songbook

SHARE PAGE  



You need to log in to post comments