Guitar Tabs, Chords and Lyrics
Update 25:10. 13:00. Site is back up running again. Songbooks are recovered. Woring on getting search back up..


Crown of Love  Arcade Fire

The Arcade Fire - Crown of Love Tabs
Intro:
 
 --------------|
 --------------|
 --------------|
 ---6-6--5-----|
 --------------|
 --------------|

They say it
Verse:
 
 ------------------|
 ------------------|
 ----3--3--3--3----|
 ---5--5--5--5-----|
 --6--6--6--6------|
 ------------------|

Fades if you
 
 ------------------|
 ------------------|
 ------------------|
 --5--5--5--5------|
 ---6--6--6--6-----|
 -4---4--4--4------|

Let it, love was
 
 ------------------|
 ------------------|
 ------------------|
 ---8--8--8--8-----|
 --6--6--6??-6------|
 -6--6--6--6-------|

Made to for-
 
 ------------------|
 ------------------|
 ------------------|
 --5---5---5--5----|
 ---8---8---8--8---|
 -7---7??--7---7--7-|

Get it.
I carved your name
Across my eyelids,
You pray for rain
I pray for blindness.
Chorus:
If you still wan[Cm]t me, please for[G#]give me,
the crown of lov[D#]e has fallen fro[A#]m me.
If you still wan[Cm]t me, please for[G#]give me,
because the spar[D#]k is not within [A#-----]me.
Line Break:
I snuffed it
 
 ------------------|
 ------------------|
 ----3--3--3--3----|
 ---5--5--5--5-----|
 --6--6--6--6------|
 ------------------|

Out before my
 
 ------------------|
 ------------------|
 ------------------|
 --5--5--5--5------|
 ---6--6--6--6-----|
 -4---4--4--4------|

mom walked in my bed
 
 ------------------|
 ------------------|
 ----3--3--3--3----|
 ---5--5--5--5-----|
 --6--6--6--6------|
 ------------------|

room
Verse 2:
The only thing that you keep changin'
is your name, my love keeps growin'
still the same, just like a cancer,
and you won't give me a straight answer!
Chorus:
If you still want me, please forgive me,
the crown of love has fallen from me.
If you still want me please forgive me
because your hands are not upon me.
Line Break:
I shrugged them off before my mom walked in my bedroom.
Verse 3:
The pains of love, and they keep growin',
in my heart there's flowers growin'
on the grave of our old love,
since you gave me a straight answer.
Chorus:
If you still wan[Cm]t me, please for[G#]give me,
the crown of lov[D#]e is not upon me[A#]
If you still wan[Cm]t me, please for[G#]give me,
cause this crown[D#] is not within m[B/D#]e.
it's not within [D#]me, it's not wit[B/D#]hin me.
Outro:
You gotta be the[D#] one,
you gotta be the way,
your name is the[B/D#] only word that I can say
You gotta be the[D#] one,
you gotta be the way,
your name is the[B/D#] only word,
the only word that I can say!
Disco Ending:
[D#] [B/D#]  

Important: The song above is NOT stored on the Chordie server. The original song is hosted at www.azchords.com. Chordie works as a search engine and provides on-the-fly formatting. Chordie does not index songs against artists'/composers' will. To remove this song please click here.

Text color:
Chord color:
Chord grids: 
Font size:    
Page size: 

A# Cm D# G#
Rate #1 of 8 versions

Jango Player

Login - add to songbook

SHARE PAGE  



You need to log in to post comments