Guitar Tabs, Chords and Lyrics
Update 25:10. 13:00. Site is back up running again. Songbooks are recovered. Woring on getting search back up..


City Calm Down  Architecture in Helsinki

Ahhh, alright. My second tab. Hope it's correct.
Intro:
 
 e|--------------------------------------------|
 B|--------------------------------------------|
 G|--------------9----9--10--12----------------|
 D|-------7-----10---10--10--10----------------|
 A|-7---7---10---------------------------------|
 E|---8----------------------------------------|x2

[C]Drinking stolen gin from the [G]rich people‚??s bar nex[F]t door. (and awkwardly)
I‚?[C]?m leaning on the shoulder of th[G]e neighbor who you choose t[F]o ignore. (and she says
you calm down?")
Verses:
 
 e|---------------|--------------------|-----------------------|
 B|---------------|--------------------|-----------------------|
 G|---------------|--------------------|-----------------------|
 D|---------------|------7h5---5-------|---10/---7h5---5-------|
 A|-7--5--3-------|-7--5-----3---------|-7-----5-----3---------|
 E|-8--7--5---x4--|-8--7-----5-----x2--|-8-----7-----5-----x2--|x2

[C]City, city won‚??t you cal[G]m down?
We‚??re never gonna get to th[F]e bottom while there‚??s traffic around.
[C]Passed a little lonely [G]cleanse.
If we play our [F]cards right we can be more than friends, still
[C]Oh so s-u-[G]d-d-e-n[F]ly. (so suddenly)
[C]Ways of calculating ways of[G] catapulting you and [F]me. (out of this town)
[C]City, city won‚??t you cal[G]m down?
They‚??ll never know we‚?[F]?re in here if we don‚??t make a sound.
[C]Faster we‚??ll divide all th[G]e sense into tin[F]y parcels.
[F]Are you hoping it‚??s tense, girl?
Outro:
 
 e|-----------------------------------------------|
 B|-12h13p12-------------12h13p12-----------------|
 G|----------12\9--7h9------------12\9------------|
 D|-----------------------------------------------|
 A|-----------------------------------------------|
 E|-----------------------------------------------|
 e|-----------------------------------------------|
 B|-12h13p12-------------------12h13p12-----------|
 G|----------12\9--7h9-/12-9------------12\9------|
 D|-----------------------------------------------|
 A|-----------------------------------------------|
 E|-----------------------------------------------|
 e|-----------------------------------------------|
 B|-x--8--8--8-x--8--8--8-x-----------------------|
 G|-x--9--9--9-x--9--9--9-x-----------------------|
 D|-x-10-10-10-x-10-10-10-x-----------------------|
 A|-----------------------------------------------|
 E|-----------------------------------------------|


Important: The song above is NOT stored on the Chordie server. The original song is hosted at www.azchords.com. Chordie works as a search engine and provides on-the-fly formatting. Chordie does not index songs against artists'/composers' will. To remove this song please click here.

Text color:
Chord color:
Chord grids: 
Font size:    
Page size: 

C F G
Rate #1 of 1 versions

Login - add to songbook

SHARE PAGE  



You need to log in to post comments