Guitar Tabs, Chords and Lyrics
Server problems seems to be fixed. Chordie has been experiencing problems with songs disappearing. These issues now seems to be fixed, but still verifying the fix. If you find anything strange, please email admin@chordie.com.


505  Arctic Monkeys

Arctic Monkeys - 505
Favourite Worst Nightmare (2007)
Chords used:
[Dm] [Em]  
 
 e|---5----7-----|
 B|---6----8-----|
 G|---7----9-----|
 D|---7----9-----|
 A|---5----7-----|
 E|---X----X-----|

I'm going back to 505 if it's a 7 hours flight or a 45 minute drive
In my imagination you're waiting lying on your side with your hands between your thighs
[Dm] [Em]  
[Dm]Stop and wait a sec when you [Em]look at me like that
My darling [Dm]what did you expect? I pr[Em]obably still adore you
With your [Dm]hands around my neck Or I d[Em]id last time I checked
[Dm] [Em]  
I'm [Dm]not shy of a spark The k[Em]nife twists at the thought that I should [Dm]fall short of the mark
Fri[Em]ghtened by the bite no it's no h[Dm]arsher than the bark
A m[Em]iddle of adventure, such a p[Dm]erfect place to start[Em]
 
 e|---12-10--------------| riff 1
 B|---------13-12-10-----|
 G|----------------------|
 D|----------------------|
 A|----------------------|
 E|----------------------|

I'm going b[Dm]ack to 505 If it's a [Em]7 hour flight
Or a [Dm]45 minute drive In [Em]my imagination you're waiting l[Dm]ying on your side
With your h[Em]ands between your thighs [Dm] [Em]
 
 e|---12-10--------------------------|
 B|---------13-12(drums stop)--------|
 G|----------------------------------|
 D|----------------------------------|
 A|----------------------------------|
 E|----------------------------------|
 e|---------------------------------------------------------------|
 B|---------------------------------------------------------------|
 G|---------------------------------------------------------------|
 D|--14--12--10--9--7--9--10--10101010--9-9999/14--14141414-------|
 A|---------------------------------------------------------------|
 e|----------------------------------------------------------12---|
 B|----------------------------------------------------------12---|
 G|----------------------------------------------------------12---|
 D|--14--12--10--9--7--9--10--10101010--9-9999/14--14141414-------|
 A|---------------------------------------------------------------|
 E|---------------------------------------------------------------|

But I crumble comp[Dm]letely when you cry
It s[Em]eems like once again you've had to g[Dm]reet me with goobye
I'm a[Em]lways just about to go and [Dm]spoil the surprise
Take my h[Em]ands off of your eyes too soon[Dm] [Em]
I'm going b[Dm]ack to 505 If it's a [Em]7 hour flight
Or a [Dm]45 minute drive In [Em]my imagination you're waiting l[Dm]ying on your side
With your h[Em]ands between your thighs And a s[Dm]mile[Em]
 
 e|-------------------------------------------------------------|
 B|----17-15-13-12-10-12-13-13131313-12-12121212/17-17171717----|
 G|-------------------------------------------------------------| (x4)
 D|-------------------------------------------------------------|
 A|-------------------------------------------------------------|
 E|-------------------------------------------------------------|
 e|-------------------------------------------------------------|
 B|-------------------------------------------------------------|
 G|-------------------------------------------------------------|
 D|--14--12--10--9--7--9--10--10101010--9-9999/14--14141414-----|
 A|-------------------------------------------------------------|
 E|-------------------------------------------------------------|
 e|-----------------------------------------------12------------|
 B|-----------------------------------------------12------------|
 G|-----------------------------------------------12------------|
 D|--14--12--10--9--7--9--10--10101010--9-9999/14---------------|
 A|-------------------------------------------------------------|
 E|-------------------------------------------------------------|

| / slide up
| \ slide down
| h hammer-on
| p pull-off
| ~ vibrato
| + harmonic
| x Mute note

Important: The song above is NOT stored on the Chordie server. The original song is hosted at www.azchords.com. Chordie works as a search engine and provides on-the-fly formatting. Chordie does not index songs against artists'/composers' will. To remove this song please click here.

Text color:
Chord color:
Chord grids: 
Font size:    
Page size: 

Dm Em
Rate #1 of 6 versions

Jango Player

Login - add to songbook

SHARE PAGE  



You need to log in to post comments