Guitar Tabs, Chords and Lyrics
Server problems seems to be fixed. Chordie has been experiencing problems with songs disappearing. These issues now seems to be fixed, but still verifying the fix. If you find anything strange, please email admin@chordie.com.


Arabella  Arctic Monkeys

Intro
Either play
Em Am G x4
or
 
 e|---------------------5--------|
 B|---------------5-7-8--8-7-5---|
 G|-/14~-------------------------|
 D|------------------------------|
 A|------------------------------|
 E|------------------------------|

[G]Arabella's got some [Em]interstellar gator [Am]skin boots
And a [G]Helter Skelter 'round her [Em]little finger and I ride it endle[Am]ssly[G]
She's got a [Em]Barbarella silver swimsuit[Am]
And when she [G]needs to shelter from r[Em]eality
She takes a dip in my da[Am]ydreams[G]
Em** Am* G* Em**
My days end best when the sunset gets itself behind
Am* G* Em**
That little lady sitting on the passen-ger side
Am* G* Em**
It's much less picturesque without her catching the light
The horizon tries but it's just not as kind on the eyes
Em** G* Em** Am* Em** G* Em** Bm*
As Arabella
Em** G* Em** Am* Em** G* Em** Bm*
Oh As Arabella
Em** G* Em** Am* Em** G* Em** Bm*
Just might've tapped into your mind and soul
Em** G* Em**Am*Em**G* Em** Bm*
You ca--a--n't be sure
 
 e|-------5---------|
 B|--5-7-8--8-7-5---|
 G|-----------------|
 D|-----------------|
 A|-----------------|
 E|-----------------|

[G]Arabella's got a '7[Em]0s head[Am]
But she's a [G]modern lover
It's an [Em]exploration she's made of outer [Am]space[G]
And her [Em]lips are like the galaxy's edge[Am]
And her [G]kiss the color of a [Em]constellation falling into pla[Am]ce[G]
Em** Am* G* Em**
My days end best when the sunset gets itself behind
Am* G* Em**
That little lady sitting on the passen-ger side
Am* G* Em**
It's much less picturesque without her catching the light
The horizon tries but it's just not as kind on the eyes
Em** G* Em** Am* Em** G* Em** Bm*
As Arabella
Em** G* Em** Am* Em** G* Em** Bm*
Oh As Arabella
Em** G* Em** Am* Em** G* Em** Bm*
Just might've tapped into your mind and soul
Em** G* Em**Am*Em**G* Em** Bm*
You ca--a--n't be sure
[C] (That's magic) in a cheetah print [Am]coat
(Just a slip) underneath it I [Em]hope
(Asking if) I can have one of [G]those
(Organic) cigarettes that she [C]smokes
(Rubs her lips) 'round a Mexican [Am]Coke
(Makes you wish) that you were the [C]bottle
(Takes a sip) of your [G]soul, and it [Eb]sounds like
 
 E|---------------------------------------------------------------------------|
 B|---------------------------------------------------------------------------|
 G|-14b16b14p12---x7-12/14/12------12h14b16-14-13h14p12--------------12h14b16-|
 D|------------14-------------12h14---------------------14------12h14---------|
 A|--------------------------------------------------------12h14--------------|
 E|---------------------------------------------------------------------------|
 ------------------------|
 --------18--------------|
 14-14b16--14b16b14~-12--|
 ----------------------14|
 ------------------------|
 ------------------------| 

Em** G* Em** Am* Em** G* Em** Bm*
Just might've tapped into your mind and soul
Em** G* Em**Am*Em**G* Em** Bm* Em
You ca--a--n't be sure

Important: The song above is NOT stored on the Chordie server. The original song is hosted at www.azchords.com. Chordie works as a search engine and provides on-the-fly formatting. Chordie does not index songs against artists'/composers' will. To remove this song please click here.

Text color:
Chord color:
Chord grids: 
Font size:    
Page size: 

Am C Eb Em G
Rate #1 of 3 versions

Jango Player

Login - add to songbook

SHARE PAGE  



You need to log in to post comments