Guitar Tabs, Chords and Lyrics
Server problems seems to be fixed. Chordie has been experiencing problems with songs disappearing. These issues now seems to be fixed, but still verifying the fix. If you find anything strange, please email admin@chordie.com.


Fireside  Arctic Monkeys

<i></i>Here is the masterpiece of "AM". The chords are based on the first covers posted
The rhythm is U-D U-D U-U-U-D for the verse. You can keep it for the chorus and
the bridge or switch to U-D U-D U-D U-D to fit with the drums. It is not palm-muted.
riff 1 :
 
 E|------------------------------------------------------------------|
 B|-/13-10-8b9r8----/13-/15-8----/13-10-8b9r8------------------------|
 G|------------------------------------------------------------------|
 D|------------------------------------------------------------------|
 A|------------------------------------------------------------------|
 E|------------------------------------------------------------------|

riff 2:
 
 E|------------------x4-------------|
 B|---------------10----------------|
 G|--------10--12-------------------|
 D|-10-12------------------10-12----|
 A|---------------------------------|
 E|---------------------------------|

[Dm]I can't explain but I want to try
There's this image of you and I
[Bb]And it goes dancing by[Gm] in the morning and in the night time[Dm]
[Dm]There's all these secrets that I can't keep
Like in my heart there's that hotel suite
[Bb]And you lived there so long, [Gm]it's kinda strange now you're gone[Dm]
I'm not sure if[Bb] I should show you what I'[Gm]ve found
Has it gone [Bb]for good or is it coming back[Gm] around?
Isn't it hard to make up your[Bb] mind
When you're [Gm]losing and your fuse is [Dm]fireside
[Dm]There's all those places we used to go
And I suspect you already know
[Bb]But that place on Memory Lane you liked
[Gm]Still looks the same but something about it's changed[Dm]
I'm not sure if[Bb] I should show you what I'[Gm]ve found
Has it gone [Bb]for good or is it coming back[Gm] around?
Isn't it hard to make up your[Bb] mind
When you're [Gm]losing and your fuse is [Dm]fireside
Bb(riff 1) Gm Bb
And I thought I was yours forever
Maybe I was mist[Gm]aken
But I just cannot ma[Bb]nage to make it through the day
W[Gm]ithout thinking of you latel[Dm]y
Solo: (refer to the song for the rhythm. There may be other notes, but i'm not
sure if it is the guitar playing. Same chords and rhythm as the verse)
 
 E|-13-13---13-12---12-------10-b10,5r10-----------------------------|
 B|----------------------10------------------------------------------|
 G|------------------------------------------12-10-12-12-b13r12-10---|
 D|------------------------------------------------------------------|
 A|------------------------------------------------------------------|
 E|------------------------------------------------------------------|
 E|------------------------------------------------------------------|
 B|-10------------10------11b12r11-10----10-------13-11-10-----------|
 G|--------10-12----------------------12-------------------12-10-----|
 D|-----12------------12---------------------------------------------|
 A|------------------------------------------------------------------|
 E|------------------------------------------------------------------|

I'm not sure if[Bb] I should show you what I'[Gm]ve found
Has it gone [Bb]for good or is it coming back[Gm] around?
Isn't it hard to make up your[Bb] mind
Gm Bb Gm Dm(riff 2)
When you're losing and your fuse is firesiiiiiide
End on Dm

Important: The song above is NOT stored on the Chordie server. The original song is hosted at www.azchords.com. Chordie works as a search engine and provides on-the-fly formatting. Chordie does not index songs against artists'/composers' will. To remove this song please click here.

Text color:
Chord color:
Chord grids: 
Font size:    
Page size: 

Bb Dm Gm
Rate #1 of 10 versions

Jango Player

Login - add to songbook

SHARE PAGE  



You need to log in to post comments